Guitar Tabs, Chords and Lyrics


The Will to Death    John Frusciante



Artist: John Frusciante
Song: The will to death
Album: The Will to Death
Tabbed by: _frulove_

Strum these chords twice in the Intro: D A G A [then throughout the first verse]
You'll have to work out how to strum them.

"And they're thought to be lies
We saw them...saw them
We looked right in their eyes
Right at them...at them
Pinning space to the world
We're slaughtered...slaughtered
Not a sound to be heard
We're awful...awful"

Strum these chords: Dm D D A A

"And have you seen
How they run
Out of gas
They beat the pain
They sing in the rain
Endless and formless
They fly to the end
And back to the
Beginning again..."

Back to strumming the Intro chords

"Have you put them aside
Your crazy thoughts and dreams
No they're a part of me
And they all mean one thing
The Will To Death is what keeps me alive
It's one step away
Limitations are set
Only then can we go all the way..."

2nd Part of chords.

"And have you seen how the cars when they pass
They come your way
Then they're speeding away
Coming to you and then going away
But for them nothing changed..."

Little solo type thing comes here.

e-------------------------------------------------------------
B-----12--12--10--9--5---7-9---12--10--9--5--7--9--7----------
G-----------------------------------------------------9-/-11--
D-------------------------------------------------------------
A-------------------------------------------------------------
E-------------------------------------------------------------

e--------------------------------------------------------------
B----12--12--10--9--5--7-9----12--10--9--5--7--9--7--------9---
G---------------------------------------------------9--8/9---9-
D--------------------------------------------------------------
A--------------------------------------------------------------
E--------------------------------------------------------------

e--------------------------------------------------------------
B---12-14-12-10-9---12-14-12-10-9---12-14-12-10-9-10-----------
G--------------------------------------------------------------
D--------------------------------------------------------------
A--------------------------------------------------------------
E--------------------------------------------------------------

e--------------------------------------------------------------
B---9-10-9-7-5----9-10-9-7-5-/9-/5-/7~~------------------------
G--------------------------------------------------------------
D--------------------------------------------------------------
A--------------------------------------------------------------
E--------------------------------------------------------------



Important: The song above is NOT stored on the Chordie server. The original song is hosted at www.xguitar.com. Chordie works as a search engine and provides on-the-fly formatting. Chordie does not index songs against artists'/composers' will. To remove this song please click here.

This song is displayed as text-only. Transposing and tuning is only available for chordpro-songs.

Login - add to songbook

Rating click stars to rate

Layout
Accuracy

SHARE PAGE  




You need to log in to post comments