Chordie logo


Your Body Is a Wonderland    John Mayer



Your body is a Wonderland

TRANSCRIBED BY Catherine Gagné and can be found also at www3.sympatico.ca/g403z


Drop D
Intro
e----------------------------------------------
b----------------------------------------------
g------10-10------10-10-----10-10------10-10---
d------10-10------10-10-----10-10------10-10---
a---8------------------------------------------
d--------------10---------8---------10---------

Fill 1                                   Fills 2 and 3
e--------------------------------   ------------------ -------------------------------------
b--------------------------------   ------------------ -------------------------1-----------
g----0h2(p0)-------10------------   -------------10--- -------------10----------0h2-----10--
d--3---------------10------------   ---7p5p0-----10--- -----5h7-----10---or---3---------10--
a---------------/8-----(etc..)---   ----------/8------ ---8------/8------------------/8-----
d--------------------------------   ------------------ -------------------------------------

Fill 4
e------------------------------
b------------------------------
g-------------------------10---
d-------------------------10---
a----------------------/8------
d---8-7-5-0--8-7-5-0-----------


"Area codes" intro
e-----------------
b---(10)--3---5---
g----10---3---5---
d----10---5---7---
a-----------------
d-----0---5---7---


Part 1

Verse

e----------------------------------------------
b----------------------------------------------
g------10-10------10-10-----10-10------10-10---
d------10-10------10-10-----10-10------10-10---
a---8------------------------------------------
d--------------10---------8---------10---------


Part 2

Pre-chorus

e----------------------------------------------
b----10--8-----10--8----------3---5---6----8---
g----10-10-----10-10----------3---5---7----9---
d-----8--8------8--8---(x3)---5---7---8---10---
a-----------------------------x---x---x----x---
d---8--------10---------------5---7---8---10---


Part 3
Chorus
e----------------------------------------------
b------10-10------10-10-----10-10------10-10---
g------10-10------10-10-----10-10------10-10---
d------10-10------10-10-----10-10------10-10---
a---8------------------------------------------
d--------------10---------8---------10---------


Part 4
"*** baby.."
e------------0----------
b---6--------8----------
g---7--------9----------
d--10-------12---(x4)---
a------(0)--10----------
d---0-------------------

e-------------------    -----------
b---6---8-----------    ---6---8---
g---7---9-----------    ---7---9---
d---x---x---(x4)---- or ---0---7---
a---5---0-----------    -------0---
d-------------------    ---0-------


Jam
e-------------------------------------------------------12---
b-----10--x--10-----10--x--10-----10--x--10-----10------10---
g-----10--x--10-----10--x--10-----10--x--10-----10------10---
d-----10--x--10-----10--x--10-----10--x--10-----10------10---
a------------------------------------------------------------
d---0-------------0-------------0-------------7------10------


You could also play this:

e----------------------7--- ---------------------12---
b------10----10--------8--- -----10----10--------13---
g------10----10--------7--- -----10----10--------12---
d------10----10------------ -----10----10-------------
a-------------------------- --------------------------
d---0------7-----10-------- ---0-----7-----10---------

(album)

e---12--8------------------------------- ---12--8------10-------
b-----------/10--8--6---6/8---10/8--6--- ----------10------12---
g---12--9------------------------------- ---12--9------10-------
d-----------/10--8--7---7/9---10/8--7--- ----------10------12---
a--------------------------------------- -----------------------
d--------------------------------------- -----------------------

e---12--8------------------------------- ---12--8------15--12---
b-----------/10--8--6---6/8---10/8--6--- ----------10-----------
g---12--9------------------------------- ---12--9------16--12---
d-----------/10--8--7---7/9---10/8--7--- ----------10-----------
a--------------------------------------- -----------------------
d--------------------------------------- -----------------------

Instead of (xxx9x8), I'm certain that John plays (xx14x13x).


Important: The song above is NOT stored on the Chordie server. The original song is hosted at www.xguitar.com. Chordie works as a search engine and provides on-the-fly formatting. Chordie does not index songs against artists/composers will. To remove this song please click here.

This song is displayed as text-only. Transposing and tuning is only available for chordpro-songs.

Login - add to songbook

Rating click stars to rate

Layout
Accuracy

SHARE PAGE  




You need to log in to post comments