C/A
 x x x 2 1 0 C/G
x x x 0 1 0 D
x x x x 3 2 G
3 2 0 0 3 3
 Am
 x 0 2 2 1 0 F
x x 3 2 1 1 C
x 3 2 0 1 0

Intro
Q=93
 4/4
    Gtr I
||------0--(0)----|-----0------2---||-----0--(0)----|
||o-----1--(1)----|-----1------3--o||-----1--(1)----|
||------2--(2)----|-----0----2-----||-----2--(2)----|
||----2-----------|---2----0-------||---2-----------|
||o-0-------------|-3-------------o||-0-------------|
||----------------|----------------||---------------|


Verse
 CDAmCD
                                   9x           
||------0------2--|-----0--(0)-----||-----0------2--|
||o-----1------3--|-----1--(1)----o||-----1------3--|
||------0----2----|-----2--(2)-----||-----0----2----|
||----2----0------|---2------------||---2----0------|
||o-3-------------|-0-------------o||-3-------------|
||----------------|----------------||---------------|


Chorus
 GAmFC
|-3---3---3---3---||--0---0---0---0---|-1---1---1---1---|-0---0---0---0---|
|-3---3---3---3---||o-1-1-1-1-1-1-1-1-|-1---1---1---1---|-1---1---1---1---|
|-0-0-0-0-0-0-0-0-||--2-2-2-2-2-2-2-2-|-2-2-2-2-2-2-2-2-|-0-0-0-0-0-0-0-0-|
|-0-0-0-0-0-0-0-0-||--2---2---2---2---|-3-3-3-3-3-3-3-3-|-2-2-2-2-2-2-2-2-|
|-2---2---2---2---||o-0---0---0---0---|-----------------|-3---3---3---3---|
|-3---3---3---3---||------------------|-----------------|-----------------|


 GAmFG
|-3---3---3---3----||-0---0---0---0---|-1---1---1---1---|-3---3---3---3---|
|-3---3---3---3---o||-1-1-1-1-1-1-1-1-|-1---1---1---1---|-3---3---3---3---|
|-0-0-0-0-0-0-0-0--||-2-2-2-2-2-2-2-2-|-2-2-2-2-2-2-2-2-|-0-0-0-0-0-0-0-0-|
|-0-0-0-0-0-0-0-0--||-2---2---2---2---|-3-3-3-3-3-3-3-3-|-0-0-0-0-0-0-0-0-|
|-2---2---2---2---o||-0---0---0---0---|-----------------|-2---2---2---2---|
|-3---3---3---3----||-----------------|-----------------|-3---3---3---3---|


 GAmFG
|-3---3---3---3---|-0---0---0---0---|-1---1---1---1---|-3---3---3---3---|
|-3---3---3---3---|-1-1-1-1-1-1-1-1-|-1---1---1---1---|-3---3---3---3---|
|-0-0-0-0-0-0-0-0-|-2-2-2-2-2-2-2-2-|-2-2-2-2-2-2-2-2-|-0-0-0-0-0-0-0-0-|
|-0-0-0-0-0-0-0-0-|-2---2---2---2---|-3-3-3-3-3-3-3-3-|-0-0-0-0-0-0-0-0-|
|-2---2---2---2---|-0---0---0---0---|-----------------|-2---2---2---2---|
|-3---3---3---3---|-----------------|-----------------|-3---3---3---3---|


Verse 2 Verse 2
 AmCDAmCD
                                                   9x           
|-----0--(0)----||------0------2--|-----0--(0)-----||-----0------2--|
|-----1--(1)----||o-----1------3--|-----1--(1)----o||-----1------3--|
|-----2--(2)----||------0----2----|-----2--(2)-----||-----0----2----|
|---2-----------||----2----0------|---2------------||---2----0------|
|-0-------------||o-3-------------|-0-------------o||-3-------------|
|---------------||----------------|----------------||---------------|


Chorus
 GAmFC
|-3---3---3---3---||--0---0---0---0---|--1---1---1---1---|-0---0---0---0----|
|-3---3---3---3---||o-1-1-1-1-1-1-1-1-|--1---1---1---1---|-1---1---1---1----|
|-0-0-0-0-0-0-0-0-||--2-2-2-2-2-2-2-2-|--2-2-2-2-2-2-2-2-|-0-0-0-0-0-0-0-0--|
|-0-0-0-0-0-0-0-0-||--2---2---2---2---|--3-3-3-3-3-3-3-3-|-2-2-2-2-2-2-2-2--|
|-2---2---2---2---||o-0---0---0---0---|------------------|-3---3---3---3----|
|-3---3---3---3---||------------------|------------------|------------------|


 GAmFG
|-3---3---3---3----||-||--0---0---0---0---|-1---1---1---1---|-3---3---3---3----|
|-3---3---3---3---o||-||o-1-1-1-1-1-1-1-1-|-1---1---1---1---|-3---3---3---3----|
|-0-0-0-0-0-0-0-0--||-||--2-2-2-2-2-2-2-2-|-2-2-2-2-2-2-2-2-|-0-0-0-0-0-0-0-0--|
|-0-0-0-0-0-0-0-0--||-||--2---2---2---2---|-3-3-3-3-3-3-3-3-|-0-0-0-0-0-0-0-0--|
|-2---2---2---2---o||-||o-0---0---0---0---|-----------------|-2---2---2---2----|
|-3---3---3---3----||-||------------------|-----------------|-3---3---3---3----|


 GAmFG
|-3---3---3---3----||-0---0---0---0---|--1---1---1---1---|-3----|
|-3---3---3---3---o||-1-1-1-1-1-1-1-1-|--1---1---1---1---|-3----|
|-0-0-0-0-0-0-0-0--||-2-2-2-2-2-2-2-2-|--2-2-2-2-2-2-2-2-|-0----|
|-0-0-0-0-0-0-0-0--||-2---2---2---2---|--3-3-3-3-3-3-3-3-|-0----|
|-2---2---2---2---o||-0---0---0---0---|------------------|-2----|
|-3---3---3---3----||-----------------|------------------|-3----|


Outro
 AmFGG
|-0---0---0---0---|-1---1---1---1---|-3---3---3---3---|-3---3---3---3---|
|-1-1-1-1-1-1-1-1-|-1---1---1---1---|-3---3---3---3---|-3---3---3---3---|
|-2-2-2-2-2-2-2-2-|-2-2-2-2-2-2-2-2-|-0-0-0-0-0-0-0-0-|-0-0-0-0-0-0-0-0-|
|-2---2---2---2---|-3-3-3-3-3-3-3-3-|-0-0-0-0-0-0-0-0-|-0-0-0-0-0-0-0-0-|
|-0---0---0---0---|-----------------|-2---2---2---2---|-2---2---2---2---|
|-----------------|-----------------|-3---3---3---3---|-3---3---3---3---|


 AmFG
|-0---0---0---0---|-1---1---1---1---|-3----*|
|-1-1-1-1-1-1-1-1-|-1---1---1---1---|-3----*|
|-2-2-2-2-2-2-2-2-|-2-2-2-2-2-2-2-2-|-0----*|
|-2---2---2---2---|-3-3-3-3-3-3-3-3-|-0----*|
|-0---0---0---0---|-----------------|-2----*|
|-----------------|-----------------|-3----*|



Am C D F G
variations - click chord images
Transpose chords:
Tuning:
Cool service:
View: Size:
A  A  A
Rating:
Layout:
  • Currently 3/5 Stars.
  • 1
  • 2
  • 3
  • 4
  • 5
 
Accuracy:
  • Currently 5/5 Stars.
  • 1
  • 2
  • 3
  • 4
  • 5
 
click stars to rate
Chordie recommends:
Learn to play songs at Jamplay.com with video guitar lessons
Songbook:
Login to add this song to your songbook
Support the artist
Preview/buy this song
MSN Music
Why this non-profit ad?

 
login to add comments/video/corrections