Guitar Tabs, Chords and Lyrics


Stone In Love    Journey



-------------------------------------------------------------------------------
			     STONE IN LOVE - JOURNEY
-------------------------------------------------------------------------------
Tabbed by: Eric Czerwinski
Email:  Teamski1@hotmail.com

Easy to play but So much fun!!!

Intro:
                               Those crazy nights, I do remember in my youth

e|-3---3-3---2--2-3---3--3-3---3---3-3---3--3-3---2--2-3---3--3-3---3---3-3-|
B|-3---3-3---3--3-3---3--3-3---3---3-3---3--3-3---3--3-3---3--3-3---3---3-3-|
G|-----------2--2-2-------------------------------2--2-2--------------------|
D|--------------------2--2-2-------2-2---------------------2--2-2-------2-2-|
A|-2---2-2------------3--3-3---2---3-3---2--2-2------------3--3-3---2---3-3-|
E|-3---3-3---------------------3---------3--3-3---------------------3-------|


    I do recall, those were the best times, most of all...................

e|-3---3-3---2--2-3---3--3-3---3---3-3---3--3-3---2--2-3---3--3-3---3---3-3-|
B|-3---3-3---3--3-3---3--3-3---3---3-3---3--3-3---3--3-3---3--3-3---3---3-3-|
G|-----------2--2-2-------------------------------2--2-2--------------------|
D|--------------------2--2-2-------2-2---------------------2--2-2-------2-2-|
A|-2---2-2------------3--3-3---2---3-3---2--2-2------------3--3-3---2---3-3-|
E|-3---3-3---------------------3---------3--3-3---------------------3-------|


    She found me singing by the rail road track............

e|-3---3-3---2--2-3---3--3-3---3---3-3--------------------------------------|
B|-3---3-3---3--3-3---3--3-3---3---3-3--------------------------------------|
G|-----------2--2-2---------------------------------------------------------|
D|--------------------2--2-2-------2-2--------------------------------------|
A|-2---2-2------------3--3-3---2---3-3--------------------------------------|
E|-3---3-3---------------------3--------------------------------------------|

Chorus:

   Those summer nights are callin',  stone in love

e|-2-------------------------------3--3---3--3------------------------------|
B|-3-------------------------------3--3---3--3------------------------------|
G|-2------------------------------------------------------------------------|
D|---------------------------------2------2---------------------------------|
A|----------------------------0-2--3--2---3--2------------------------------|
E|------------------------------------3------3------------------------------|

    Can't help myself I'm fallin',  stone in love

e|-2-------------------------------3--3-------------------------------------|
B|-3-------------------------------3--3-------------------------------------|
G|-2------------------------------------------------------------------------|
D|---------------------------------2----------------------------------------|
A|----------------------------0-2--3--2-------------------------------------|
E|------------------------------------3-------------------------------------|


			     Old dusty roads, led to the river, Runnin' slow

e|-3---3-3---2--2-3---3--3-3---3---3-3---3--3-3---2--2-3---3--3-3---3---3-3-|
B|-3---3-3---3--3-3---3--3-3---3---3-3---3--3-3---3--3-3---3--3-3---3---3-3-|
G|-----------2--2-2-------------------------------2--2-2--------------------|
D|--------------------2--2-2-------2-2---------------------2--2-2-------2-2-|
A|-2---2-2------------3--3-3---2---3-3---2--2-2------------3--3-3---2---3-3-|
E|-3---3-3---------------------3---------3--3-3---------------------3-------|


   She pulled me down, and in clover, We'd go 'round........

e|-3---3-3---2--2-3---3--3-3---3---3-3---3--3-3---2--2-3---3--3-3---3---3-3-|
B|-3---3-3---3--3-3---3--3-3---3---3-3---3--3-3---3--3-3---3--3-3---3---3-3-|
G|-----------2--2-2-------------------------------2--2-2--------------------|
D|--------------------2--2-2-------2-2---------------------2--2-2-------2-2-|
A|-2---2-2------------3--3-3---2---3-3---2--2-2------------3--3-3---2---3-3-|
E|-3---3-3---------------------3---------3--3-3---------------------3-------|


   Oo the memories never fade away, Golden girl, I'll keep you forever.

e|-3---3-3---2--2-3---3--3-3---3---3-3--------------------------------------|
B|-3---3-3---3--3-3---3--3-3---3---3-3--------------------------------------|
G|-----------2--2-2---------------------------------------------------------|
D|--------------------2--2-2-------2-2--------------------------------------|
A|-2---2-2------------3--3-3---2---3-3--------------------------------------|
E|-3---3-3---------------------3--------------------------------------------|

Chorus:

   Those summer nights are callin',  stone in love

e|-2-------------------------------3--3---3--3------------------------------|
B|-3-------------------------------3--3---3--3------------------------------|
G|-2------------------------------------------------------------------------|
D|---------------------------------2------2---------------------------------|
A|----------------------------0-2--3--2---3--2------------------------------|
E|------------------------------------3------3------------------------------|

    Can't help myself I'm fallin',  stone in love

e|-2-------------------------------3--3-------------------------------------|
B|-3-------------------------------3--3-------------------------------------|
G|-2------------------------------------------------------------------------|
D|---------------------------------2----------------------------------------|
A|----------------------------0-2--3--2-------------------------------------|
E|------------------------------------3-------------------------------------|



Important: The song above is NOT stored on the Chordie server. The original song is hosted at www.xguitar.com. Chordie works as a search engine and provides on-the-fly formatting. Chordie does not index songs against artists/composers will. To remove this song please click here.

This song is displayed as text-only. Transposing and tuning is only available for chordpro-songs.

Login - add to songbook

Rating click stars to rate

Layout
Accuracy

SHARE PAGE  




You need to log in to post comments