Lights

Journey

 Bm-C-D-C-D
 DBmC
When the lights go down in the city
 DBmC
And the sun shines on the bay
 DBmC
Ooo, I wanna be there in my city, ooo-oo-oooh
 BmCDCD
 Oooh oooh ooo-oo-oh

 DBmC
   So you think you're lonely
 DBmC
   Well my friend I'm lonely too
 DBmC
   I want to get back to my city by the bay
 BmCDCD
 Woah oooh ooo-oo-oh

 BmG
It's sad, oooh
 D
There's been mornings
 BmG
Out on the road without you    
 DA
Without your charms   
 BmG
    Woo-oo-oh oh
 D
My my my my my my
 BmCDCD
 Woah oooh ooo-oo-oh

 DBmC
When the lights go down in the city
 DBmC
And the sun shines on the bay
 DBmC
Ooo, I wanna be there in my city, ooo-oo-oooh
 BmCDCD
 Woah oooh ooo-oo-oh

 Bm-C-D-C-D
 DBmC
When the lights go down in the city
 DBmC
And the sun shines on the bay
 DBmC
Ooo, I wanna be there in my city, ooo-oo-oooh
 BmCDCD
 Woah oooh ooo-oo-oh, mmmmmm
 BmCDCD
 Woah oooh ooo-oo-oh
"Lights" by Journey

INTRO:
|------------------|-----------------|------------------|----------------=
|---------7--------|-------7---------|------------------|-------2h3p2----=
|-----7---7h9-7----|-------7h9p7---7-|--------7h9p7--7\-|-----2----------=
|----------------9-|-----7-------7---|--------7------9\-|---2------------=
|-7/9---9----------|---9-------------|-7/9--9-----------|-0--------------=
|------------------|-7---------------|------------------|----------------=


When =
the...
|----------------|---------------------|----------------|----------------=
|----------------|---------------------|----------------|----------------=
|-------7h9p7----|---------10p9--------|-----7----------|----------------=
|-----7----------|------10-------10----|---7------------|----------------=
|---9------------|---10-------------10-|-9--------------|----------------=
|-7--------------|-8-------------------|----------------|----------------=


and =
the...
|-|----------------|----------------|-----------------|------------------=
|-|*---------------|----------------|-----------------|------------------=
|-|------7h9-7-----|-------7--------|----5-----5------|---5---5h7--5-----=
|-|------------7h9-|-----9----------|----5-----5------|---5---5----------=
|-|*-9-------------|---9------------|-7-----7---------|-7---7---------7--=
|-|----------------|-7--------------|-----------------|------------------=


Oooh =
I...
|---------------|---------------|----------------|-----------------------=
|---------------|---------------|----------------|-----------------------=
|---------------|----------7----|----5-----5-----|----5-----/7p5\2-------=
|----9p7--------|-------9-------|----5-----5-----|----5------------------=
|-9--------9----|----9----------|-7-----7--------|-7-----7---------------=
|---------------|-7-------------|----------------|-----------------------=


Oh,
|----------------|--------------|----------------|-----------------------=
|----------------|--------------|----------------|-----------------------=
|------7h9-------|------7-------|-----5-----5----|--5/7~~~~--5\2---------=
|-4---------7h9--|--------------|-----5-----5----|-----------------4-----=
|----------------|----------9---|--7-----7-------|-----------------------=
|----------------|--------------|----------------|-----------------------=


Oh, (C)Oh (D)Oh It's =
...
|---------------------|------------|-------------|--3p2------------------=
|---------------------|------------|-------------|--3-----3--------------=
|----------9p7--------|------------|-------------|--2-----2--------------=
|-------7-------7-----|------------|-------------|--0--------------------=
|----9-------------9--|------------|-------------|-----------------------=
|-7-------------------|------------|-------------|-----------------------=


 BmA5G5DB5A5
 sad,  oh  there's been mornings  out on the road without you  
 G5DD5A5
 without your charms      
 B5BmA5G5D
       Oh,    my  my  my  my     my     my
 BmCD
 oh,                    

3RD VERSE:
When the ...

Lights... (Bm) and =
the...
|---------------------|------------|-----------------|-------------------=
|---------------------|------------|-----------------|-------------------=
|---------7h9---------|------------|----5-----5------|-5/7~~~--5\2-------=
|--------------7h9--9-|------------|----5-----5------|---------------5---=
|-/9~~~---------------|------------|-7-----7---------|-------------------=
|---------------------|------------|-----------------|-------------------=


(Bm) ...bay. Ooh =
I...
|-------------------|------------|---------------|-----------------------=
|------7------------|------------|---------------|-----------------------=
|------7------------|------------|-----5------5--|-5-/-7-\-5-/-7-\-5~~~~-=
|--4---7----5h7-----|------------|-----5------5--|-----------------------=
|-------------------|------------|-7------7------|-----------------------=
|-------------------|------------|---------------|-----------------------=


...my city oh,
|------------------|---------------|----------------|--------------------=
|------------------|---------------|----------------|--------------------=
|--------7h9-------|--------7------|------5-------5-|-5/7~~~~--5\2-------=
|--2h4--------7h9--|-----9----9----|------5-------5-|----------------5---=
|------------------|---9--------9--|-7-------7------|--------------------=
|------------------|-7-------------|----------------|--------------------=


Heavy distortion-->
|--------------|-----------------|------------------|--------------------=
|--------------|-----------------|------------------|------------10--12--=
|-------7------|---------9-------|------------------|-----7-9/11---------=
|-----9---9----|------10---10----|------4/16\-------|-7-9----------------=
|---9-------9--|---10---------10-|----x-5/17\--7/9--|--------------------=
|-7------------|-8---------------|------------------|--------------------=


SOLO:
|-12b~~~-12b~~r-10-|-12-10~~~~-10----10-|12b~~~-12b~~~-12p10-|-12------12=
|------------------|--------------12----|--------------------|---10~~~---=
|------------------|--------------------|--------------------|-----------=
|------------------|--------------------|--------------------|-----------=
|------------------|--------------------|--------------------|-----------=
|------------------|--------------------|--------------------|-----------=
|-10~~~-7-------------------|-------------|-----------------|------------=
|---------10-7--------------|-------------|-----------------|----------10-12
|--------------9b--9p7---7~~|~~------7--9-|-9b---9b~~~--9p7-|-9~~-9/11---=
|----------------------9----|---7/9-------|-----------------|------------=
|---------------------------|-------------|-----------------|------------=
|---------------------------|-------------|-----------------|------------=
|-10----10-10-10----10-10-|-10----------------|-10-----------------------=
|-10h12-12-12-10h12-12-12-|-12p10-------10-12-|---10-12--10--7-----------=
|-------------------------|-------12~~~-------|--------11--9---9---7-----=
|-------------------------|-------------------|------------------9---7---=
|-------------------------|-------------------|--------------------------=
|-------------------------|-------------------|--------------------------=
|---------------------|-15b-15p13--------|-15b-15p13-15--13bq-13bq--|----=
|---------------------|-----------15~~~~-|--------------------------|----=
|---------------------|------------------|--------------------------|----=
|-9---7---------------|------------------|--------------------------|----=
|---9---7-9--7h9p7\5--|------------------|--------------------------|----=
|---------------------|------------------|--------------------------|----=


When the ...
|-------------------|-17----17-17-17-------------|-17~~-17\--------------=
|-15~~~-------15-17-|-17h19-19-19-19-17-19-17----|-19---19\--------------=
|-------14/16-------|-------------------------19-|-----------------------=
|-------------------|----------------------------|----------7h9----------=
|-------------------|----------------------------|--------------7h9------=
|-------------------|----------------------------|-----------------------=
|----------------|--------------------|-----------------|----------------=
|----------------|--------------------|-----------------|----------------=
|----------7-----|-------5---------5--|-5/7~~~--5\2-----|-----9----------=
|-------9--------|----5---------5-----|--------------5--|-4------7h9-----=
|----9-----------|-7-------5/7--------|-----------------|------------7h9-=
|-7--------------|--------------------|-----------------|----------------=


... oh.
|-----------------|----------------|---------------------|---------------=
|----------7------|----------------|---------------------|---------------=
|----------7--7---|-----5-------5--|-5/7-\-5-/-7-\-5~~~~-|-------7-------=
|-------9-------9-|---5-------5----|---------------------|-----7---7-----=
|----9------------|-7-----5/7------|---------------------|---9-------9---=
|-7---------------|----------------|---------------------|-7-------------=


 C
|--------------|-----------------|---------------------|-----------------=
|--------------|-----------------|---------------------|-----------------=
|-5------------|-----7--9/11~~~--|-11--7---------------|-------9--7---7--=
|--------------|---7-------------|--------9--7--7\4----|-----9-----------=
|--------------|-9---------------|-------------------5-|---9-------------=
|--------------|-----------------|---------------------|-7---------------=
|--------------------|-----------------|-----------------||
|----------5---------|-8/10-\-8----7---|-----------------||
|-5----5-------------|-9/11-\-9----7---|-----------------||
|--------------------|-----------------|-----------------||
|--------------------|-----------------|-----------------||
|--------------------|-----------------|-----------------||



A A5 B5 Bm C D D5 G G5
variations - click chord images
Transpose chords:
Tuning:
Cool service:
View: Size:
A  A  A
Rating:
Layout:
  • Currently 2.7/5 Stars.
  • 1
  • 2
  • 3
  • 4
  • 5
 
Accuracy:
  • Currently 3.1/5 Stars.
  • 1
  • 2
  • 3
  • 4
  • 5
 
click stars to rate
Chordie recommends:
Learn to play this song & others via video guitar lessons at JamPlay.com
Songbook:
Login to add this song to your songbook
Support the artist
Preview/buy this song
MSN Music
Why this non-profit ad?

 
login to add comments/video/corrections

atarah (report comment to admin):
  My experience with charts and lyrics tells me...YOU don' know....!!!!What the flyin' flip you be talkin' 'bout! Your charts suck and your whole site is bogus! Why do you confuse those who don't know? Why, oh WHY can you continue this charade? I know you've gotten these comms before, so, why don't you either get up to snuff with reality chord charts, or....Most sincerely; sk.atarah808@gmail.com! OK?