Guitar Tabs, Chords and Lyrics


All The Way    Judas Priest



Intro 1st gtr.
E---||---5--5--5--5--|--------------|--------------|--1--1--1--3--------
B---||---5--5--5--5--|--5--6--6--5--|--5--6--6--5--|--1--1--1--3--------
G---||*--6--7--7--6--|--5--5--5--5--|--5--5--5--5--|--2--2--2--4--------
D---||*--7--7--7--7--|--5--5--5--5--|--5--5--5--5--|--3--3--3--5--------
A---||---------------|--------------|--------------|--------------------
E---||---------------|--------------|--------------|--------------------


     4x       Intro  2nd gtr.
E----||--||------|-----|-----|--------------|--------------|------------
B----||--||------|-----|-----|--------------|--------------|------------
G---*||--||*--2--|--5--|--5--|--------------|--2--2--2--2--|--5--5------
D---*||--||*--2--|--5--|--5--|--3-----3--5--|--2--2--2--2--|--5--5------
A----||--||---0--|--3--|--3--|--3-----3--5--|--0--0--0--0--|--3--3------
E----||--||------|-----|-----|--1-----1--3--|--------------|------------



E---------|--------------|-----------------|--------------|-------------
B---------|--------------|-----------------|--------------|-------------
G---5-----|--5--5--5-----|-----------------|--2--2--2--2--|--5--5--5----
D---5--5--|--5--5--5--5--|-----3--3--3--5--|--2--2--2--2--|--5--5--5----
A---3--5--|--3--3--3--5--|-----3--3--3--5--|--0--0--0--0--|--3--3--3----
E------3--|-----------3--|-----1--1--1--3--|--------------|-------------


                                                  Verse
E------|--------------|------------------||--||------|-----|--3--2------
B------|--------------|------------------||--||------|-----|--3--3------
G------|--5--5--5-----|-----------------*||--||*--2--|--2--|--0--2------
D---5--|--5--5--5--5--|-----3--3--3--5--*||--||*--2--|--2--|--0--0------
A---5--|--3--3--3--5--|-----3--3--3--5---||--||---0--|--0--|------------
E---3--|-----------3--|-----1--1--1--3---||--||------|-----|--3---------


           2x
E---|------||--||------|-----------------|-----|-----|-----|------------
B---|------||--||------|-----------------|--3--|--3--|-----|------------
G---|--2--*||--||*-----|-----------------|--0--|--2--|-----|------------
D---|--2--*||--||*--2--|--2--------------|--0--|--0--|--2--|--2--2------
A---|--0---||--||---2--|--2--------------|-----|-----|--2--|--2--2------
E---|------||--||---0--|--0-----0--0--2--|--3--|-----|--0--|--0--0------



E---|-----|--------|--------------------------|---------------||--------
B---|-----|--------|--------------------------|---------------||--------
G---|-----|--------|--2--2--2--2--2--2--2--2--|--2-----2-----*||--------
D---|--3--|--5--5--|--2--2--2--2--2--2--2--2--|--2-----2-----*||--------
A---|--3--|--5--5--|--0--0--0--0--0--0--0--0--|--0-----0------||--------
E---|--1--|--3--3--|--------------------------|-----------3---||--------


         Chorus
E---||------------------|-----------------|-----------|-----------------
B---||------------------|-----------------|-----------|--3-----3--------
G---||*--9--9--9--9--9--|--9--9--9--9-----|--2--2--2--|--2--2--2--2-----
D---||*--9--9--9--9--9--|--9--9--9--9--5--|--2--2--2--|--0--2--0--2-----
A---||---7--7--7--7--7--|--7--7--7--7--3--|--0--0--0--|-----0-----0-----
E---||---0--0--0--0--0--|--0--0--0--0-----|-----------|-----------------


     2x
E----||--||-------------------------------------------------------------
B----||--||-------------------------------------------------------------
G---*||--||*------------------------------------------------------------
D---*||--||*------------------------------------------------------------
A----||--||-------------------------------------------------------------


Important: The song above is NOT stored on the Chordie server. The original song is hosted at www.xguitar.com. Chordie works as a search engine and provides on-the-fly formatting. Chordie does not index songs against artists/composers will. To remove this song please click here.

This song is displayed as text-only. Transposing and tuning is only available for chordpro-songs.

Login - add to songbook

Rating click stars to rate

Layout
Accuracy

SHARE PAGE  




You need to log in to post comments