Chordie logo

White Heat, Red Hot    Judas Priest



Artist: Judas Priest
Song: White heat, red hot
Album: Stained Class

Intro/verse (Guitar 1)
-------------------------------------------------------------
-------------------------------------------------------------
-------------------------------------------------------------
---------------0------4----0--------0---------0------4--------
---0h2-0h2-2-2---2-0-2-2-2---2-0------2-0-------2-0--2--------
-2--------------------------------2---------2----------------
pm        pm pm
(Guitar 2)
-------------------------------10---------------------
------------------------------------------------------
---7-9b-9b-9b-9b-9b-7h9p7h9-9b----b9r---9p7---------
-9------------------------------------9------7h9-----
------------------------------------------------------
------------------------------------------------------

Chorus:
--------------------------------------------------------------------------------
--------------------------------------------------------------------------------
--------------------------------------------------------------------------------
-9---------------12/(9)------------11/(9)------------15/(9)---------------------
-7---------------10/(7)-------------9/(7)------------13/(7)--------------------
-0-0-0-0-0-0-0-------0-0-0-0-0-0-------0-0-0-0-0-0—0-(0)-0-0-0-0-0-0-----------
   pm………..             pm………              pm…….             Pm………..    2xs

------------------------------------------------------------
------------------------------------------------------------
------------------------------------------------------------
------------------------------------------------------------
-4-----0h2—0h2------------------------------------------
-2--2------------------------------------------------------
    pm

Back to Verse (Guitar 2 plays these things in various places)
-----  -------19---------------17b------------  -------------------
-----  --17b-----17b(17)----------19p17-----    ------------------
--7b- --------------------19--------------19--   ------------------
-----  -----------------------------------------  -7-9-7---7-------
-----  -----------------------------------------  --------9---9-----
-----  -----------------------------------------  ------------------

Chorus again..end with:
------------------------------------------------------------
------------------------------------------------------------
------------------------------------------------------------
-14--15--16-----------------------------------------------
-12--13--14-----------------------------------------------
------------------------------------------------------------

Bridge:
----------------------------------------------------------------------
-----------------------------------------------------------------------
-----------------5---------------------------------------------------
-5h7-------------5--7-------------5h7-------------------------------
-5h7-0-0-0-0-0------7-0-0-0-0-0---5h7-0-0-0-0-0-0-0-0-0-0-0-0---
-----------------------------------------------------------------------
      pm………          pm……….           Pm………………………
 1st         2nd      3rd
-------  ------  -----------------------------------------------
-------  ------  -----------------------------------------------
--5----  -7p5-  -------5--------------------------------------
-----7-  -7p5-  --7-5----7-----------------------------------
-------  ------  -----------------------------------------------
-------  ------  -----------------------------------------------

Riff
------------------------------------------------------------
------------------------------------------------------------
------------------------------------------------------------
-s-7-5--------------s-7-5----------------------------------
--------7-6-5-------------7-6-5---5----(7)-----------------
---------------5-8---------------8---8s-5------------------

---------------------------------------------------------------------
-15-13---------------------15-13-----------------------------------

--------14-12---------------------14-12----------------------------
----------------14------------------------14-12-14-----------------
--------------------12--15--------------------------12-15----------
---------------------------------------------------------------------- I don’t know if that part is correct…

Solo (working on it)

Verse
Chorus
Bridge
Riff



Important: The song above is NOT stored on the Chordie server. The original song is hosted at www.xguitar.com. Chordie works as a search engine and provides on-the-fly formatting. Chordie does not index songs against artists/composers will. To remove this song please click here.

This song is displayed as text-only. Transposing and tuning is only available for chordpro-songs.

Login - add to songbook

Rating click stars to rate

Layout
Accuracy

SHARE PAGE  

You need to log in to post comments