Chordie logo

Dust In The Wind      Kansas



kansas - dust in the wind
Tabbed By: Matt Moon
Email: matt52093@comcast.net

Tuning: Standard (E A D G B E)



E-----------------|-----------------|-----------------|-----------------||
B-1---------1-----|-0---------0-----|-3---------0-----|-1---------1-----||
G-------0-------0-|-------0-------0-|-------0-------0-|-------0-------0-||
D-----2-------2---|-----2-------2---|-----2-------2---|-----2-------2---||
A-3-------3-------|-3-------3-------|-3-------3-------|-3-------3-------||
E-----------------|-----------------|-----------------|-----------------||

E-----------------|-----------------|-----------------|-----------------||
B-0---------0-----|-3---------3-----|-1---------1-----|-0---------0-----||
G-------2-------2-|-------2-------2-|-------2-------2-|-------2-------2-||
D-----2-------2---|-----2-------2---|-----2-------2---|-----2-------2---||
A-0-------0-------|-0-------0-------|-0-------0-------|-0-------0-------||
E-----------------|-----------------|-----------------|-----------------||

E-----------------|-----------------|-----------------|-----------------||
B-3---------3-----|-1---------1-----|-0---------0-----|-3---------3-----||
G-------0-------0-|-------0-------0-|-------0-------0-|-------0-------0-||
D-----2-------2---|-----2-------2---|-----2-------2---|-----2-------2---||
A-3-------3-------|-3-------3-------|-3-------3-------|-3-------3-------||
E-----------------|-----------------|-----------------|-----------------||

E-----------------|-----------------|-----------------|-----------------||
B-1---------1-----|-0---------0-----|-3---------3-----|-1---------------||
G-------2-------2-|-------2-------2-|-------2-------2-|-------2---------||
D-----2-------2---|-----2-------2---|-----2-------2---|-----2-----------||
A-0-------0-------|-0-------0-------|-0-------0-------|-0-------0---2---||
E-----------------|-----------------|-----------------|-----------------||

E-----------------|-3---------3-----|-0---------------|-0---------------||
B-1---------1-----|-3---------3-----|-1---------1-----|-1---------1-----||
G-------0-------0-|-------0-------0-|-------2-------2-|-------2-------2-||
D-----2-------2---|-----0-------0---|-----2-------2---|-----2-------2---||
A-3-------3-------|-2-------2-------|-0-------0-------|-0-------0-------||
E-----------------|-----------------|-----------------|-----------------||

E-3---------3-----|-1---------1-----|-0---------------|-0---------------||
B-3---------3-----|-------3-------3-|-1---------1-----|-1---------------||
G-------0-------0-|-----2-------2---|-------2-------2-|-------2---------||
D-----0-------0---|-0-------0-------|-----2-------2---|-----2-----------||
A-----------------|-----------------|-0-------0-------|-0-------0---2---||
E-3-------3-------|-----------------|-----------------|-----------------||

E-----------------|-3---------3-----|-0---------------|-0---------------||
B-1---------1-----|-3---------3-----|-1---------1-----|-1---------1-----||
G-------0-------0-|-------0-------0-|-------2-------2-|-------2-------2-||
D-----2-------2---|-----0-------0---|-----2-------2---|-----2-------2---||
A-3-------3-------|-2-------2-------|-0-------0-------|-0-------0-------||
E-----------------|-----------------|-----------------|-----------------||

E-3---------3-----|-1---------1-----|-----------------|-----------------||
B-3---------3-----|-------3-------3-|-1---------1-----|-1---------1-----||
G-------0-------0-|-----2-------2---|-------2-------2-|-------2-------2-||
D-----0-------0---|-0-------0-------|-----2-------2---|-----2-------2---||
A-----------------|-----------------|-0-------0-------|-0-------0-------||
E-3-------3-------|-----------------|-----------------|-----------------||

E-----------------|-3---------3-----|-----------------|-----------------||
B-3---------3-----|-3---------3-----|-1---------1-----|-1---------1-----||
G-------2-------2-|-------0-------0-|-------2-------2-|-------2-------2-||
D-----0-------0---|-----0-------0---|-----2-------2---|-----2-------2---||
A-----------------|-----------------|-0-------0-------|-0-------0-------||
E-2-------2-------|-3-------3-------|-----------------|-----------------||

E-----------------|-3---------3-----|-----------------|---------3-------||
B-3---------3-----|-3---------3-----|-0-1-------0-----|-0-1-----3-------||
G-------2-------2-|-------0-------0-|-2---------------|-2-------0-------||
D-----0-------0---|-----0-------0---|-------2-------2-|-----------------||
A-----------------|-----------------|-0---------------|-0-------2-------||
E-2-------2-------|-3-------3-------|-----------------|-----------------||

E-----------------|-----------------|-3-----3---3-----|-3-----3---3-----||
B-0-----1---0-----|-0-----1---0-----|-0---0-3---0-----|-0---0-3---0-----||
G-2-----2---2-----|-2-----2---2-----|---------------0-|---------------0-||
D-----2---------2-|-----2---------2-|-----------------|-----------------||
A-0---------------|-0---------------|-----------------|-----------------||
E-----------------|-----------------|-3---------------|-3---------------||

E-----------------|-----------------|-1-----1---1-----|-----------------||
B-0-----1---0-----|-0-----1---0-----|-3-----1---3-----|-0-----1---0-----||
G-2-----2---2-----|-2-----2---2-----|-----2---------2-|-2-----2---2-----||
D-----2---------2-|-----2---------2-|-0---------------|-----2---------2-||

A-0---------------|-0---------------|-----------------|-0---------------||
E-----------------|-----------------|-----------------|-----------------||


look at my other tabs

Guitar:Blink 182 -  Adam's Song
                    Untitled
       CKY -  Flesh Into Gear
              Sink Into the Underground
       HIM -  Right Here in My Arms
       Miscellaneous -  Guitar Pro
       Movie Themes -  Pirates of the Caribbean
       Rancid -  Fall Back Down

Keyboard:Beethoven -  Ode to Joy
         Blink 182 -  Dammit
                      Pathetic

Lyrics:CKY -  Escape From Hellview
       Jimmy Eat World -  Pain
       Lostprophets -  Last Train Home


Important: The song above is NOT stored on the Chordie server. The original song is hosted at www.xguitar.com. Chordie works as a search engine and provides on-the-fly formatting. Chordie does not index songs against artists/composers will. To remove this song please click here.

This song is displayed as text-only. Transposing and tuning is only available for chordpro-songs.

Rating click stars to rate

Layout
Accuracy

SHARE PAGE  

You need to log in to post comments