Chordie logo


Temple from the Within    Killswitch Engage



Artist: Killswitch Engage
Track: Temple From The Within
Album: Alive or Just Breathing
Tabbed By: Ferg 

h = Hammer On
p = Pull Off
/ = Slide Up
\ = Slide Down
^ = Pinch Harmonic
p.m = Palm Muting                              Tuning - D,A,D,G,B,E

INTRO:
|-----------------------------------------------------------------|
|-----------------------------------------------------------------|
|---8\7--------------7-----5--7/8\7----------------7-----5--------|
|---8\7-----------8--7--5--5--7/8\7-------------8--7--5--5--2--3--| (x1)
|---6\5-----------8--5--5--3--5/6\5-------------8--5--5--3--2--3--|
|-------0-0-0-0-0-8-----5-----------0-0-0-0-0-0-8-----5-----2--3--|

VERSE:
|---------------------------------------------------------------------|
|---------------------------------------------------------------------|
|---7/8\7----------------7-----5--7/8\7----------------7-----5--------|
|---7/8\7-------------8--7--5--5--7/8\7-------------8--7--5--5--2--3--| (x3)
|---5/6\5-------------8--5--5--3--5/6\5-------------8--5--5--3--2--3--|
|---------0-0-0-0-0-0-8-----5-----------0-0-0-0-0-0-8-----5-----2--3--|




VERSE 2: - Guitar 1
|----------------------------------------------------------------------------|
|----------------------------------------------------------------------------|
|-------------------3-3-3-3-3-3-3-3-----------------10-10-10-10-10-10-10-10--|
|---1-1-1-1-1-1-1-1-3-3-3-3-3-3-3-3-0-0-0-0-0-0-0-0-10-10-10-10-10-10-10-10--| (x4)
|---1-1-1-1-1-1-1-1-1-1-1-1-1-1-1-1-0-0-0-0-0-0-0-0--8--8--8--8--8--8--8--8--|
|---1-1-1-1-1-1-1-1-1-1-1-1-1-1-1-1-0-0-0-0-0-0-0-0--8--8--8--8--8--8--8--8--|

VERSE 2: - Guitar 2
|----------------------------------------------------8--8--8--8--8--8--8--8--|
|----------------------------------------------------8--8--8--8--8--8--8--8--|
|---7-7-7-7-7-7-7-7-7-7-7-7-7-7-7-7-7-7-7-7-7-7-7-7--------------------------|
|---8-8-8-8-8-8-8-8-8-8-8-8-8-8-8-8-7-7-7-7-7-7-7-7--------------------------| (x4)
|----------------------------------------------------------------------------|
|----------------------------------------------------------------------------|


VERSE:
|---------------------------------------------------------------------|
|---------------------------------------------------------------------|
|---7/8\7----------------7-----5--7/8\7----------------7-----5--------|
|---7/8\7-------------8--7--5--5--7/8\7-------------8--7--5--5--2--3--| (x4)
|---5/6\5-------------8--5--5--3--5/6\5-------------8--5--5--3--2--3--|
|---------0-0-0-0-0-0-8-----5-----------0-0-0-0-0-0-8-----5-----2--3--|



CHORUS:	- Guitar 1
|------------8----------------------------------8------------------------
|---10-10-10-8--5--5---6-6-6-6-6-6-6---10-10-10-8--5--5---6-6-6-6-6-6-5--
|---------------5--5/7-7-7-7-7-7-7-7---------------5--5/7-7-7-7-7-7-7-5--
|------------------------------------------------------------------------
|------------------------------------------------------------------------
|------------------------------------------------------------------------

---------------------------------------------------------|
---5-5-5-5--5h6-5-----------------8-8-8----8-8-8----8-8--|
---5-5-5-5--5-5-5--5-7---7-7-5-0--7-7-7----7-7-7----7-7--|
-------------------5-5---5-5-5-0--5-5-5----5-5-5----5-5--| (x2)
---------------------------------------------------------|
---------------------------------------------------------|

CHORUS: - Guitar 2
|---------------------------------------------------------------------------------
|---10-10-10-8-----------------------------10-10-10-8-----------------------------
|---------------9--9/10-10-10-10-10-10-9---------------9--9/10-10-10-10-10-10-9---
|---------------------------------------------------------------------------------
|---------------------------------------------------------------------------------
|---------------------------------------------------------------------------------

-------------------------------------------------------------------|
-------------------------------------------------------------------|
---12-12-12-10---9--9h10-10-10---9-9--------7-7-7----7-7-7----7-7--|
-------------------------------------10-10--7-7-7----7-7-7----7-7--| (x2)
--------------------------------------------5-5-5----5-5-5----5-5--|
--------------------------------------------5-5-5----5-5-5----5-5--|


HEAVY RIFF:

Let Ring	  p.m		         Play this at start of 5th bar
|---------|   |----------------------------------|	  |-----------|
|---------|   |----------------------------------|	  |-----------|
|---------|   |----------------------------------|	  |-----------|
|---0-----|   |---0-0--0--0-3h4p3-0-0--0--0-0h1--| (x8)  |---0-0-^---|
|---0-----|   |---0-0--0--0-3h4p3-0-0--0--0-0h1--|	  |---0-0-4---|
|---0-----|   |---0-0--0--0-3h4p3-0-0--0--0-0h1--|	  |---0-0-----|



CHORUS:	- Guitar 1
|------------8----------------------------------8------------------------
|---10-10-10-8--5--5---6-6-6-6-6-6-6---10-10-10-8--5--5---6-6-6-6-6-6-5--
|---------------5--5/7-7-7-7-7-7-7-7---------------5--5/7-7-7-7-7-7-7-5--
|------------------------------------------------------------------------
|------------------------------------------------------------------------
|------------------------------------------------------------------------

---------------------------------------------------------|
---5-5-5-5--5h6-5-----------------8-8-8----8-8-8----8-8--|
---5-5-5-5--5-5-5--5-7---7-7-5-0--7-7-7----7-7-7----7-7--|
-------------------5-5---5-5-5-0--5-5-5----5-5-5----5-5--| (x2)
---------------------------------------------------------|
---------------------------------------------------------|

CHORUS: - Guitar 2
|---------------------------------------------------------------------------------
|---10-10-10-8-----------------------------10-10-10-8-----------------------------
|---------------9--9/10-10-10-10-10-10-9---------------9--9/10-10-10-10-10-10-9---
|---------------------------------------------------------------------------------
|---------------------------------------------------------------------------------
|---------------------------------------------------------------------------------

-------------------------------------------------------------------|
-------------------------------------------------------------------|
---12-12-12-10---9--9h10-10-10---9-9--------7-7-7----7-7-7----7-7--|
-------------------------------------10-10--7-7-7----7-7-7----7-7--| (x2)
--------------------------------------------5-5-5----5-5-5----5-5--|
--------------------------------------------5-5-5----5-5-5----5-5--|




HEAVY RIFF 2:

Guitar 1       p.m
|-------------------------------|
|-------------------------------|
|-------------------------------|
|-------0-0--------0-0-0-0-0-0--| (x8)
|-------0-0--------0-0-0-0-0-0--|
|-------0-0--------0-0-0-0-0-0--|

Guitar 2
|-------------------------------|
|--8-8-8-----8-8-8--------------|
|--7-7-7-----7-7-7--------------|
|--5-5-5-----5-5-5--------------| (x8)
|-------------------------------|
|-------------------------------|



VERSE 2: - Guitar 1
|----------------------------------------------------------------------------|
|----------------------------------------------------------------------------|
|-------------------3-3-3-3-3-3-3-3-----------------10-10-10-10-10-10-10-10--|
|---1-1-1-1-1-1-1-1-3-3-3-3-3-3-3-3-0-0-0-0-0-0-0-0-10-10-10-10-10-10-10-10--| (x4)
|---1-1-1-1-1-1-1-1-1-1-1-1-1-1-1-1-0-0-0-0-0-0-0-0--8--8--8--8--8--8--8--8--|
|---1-1-1-1-1-1-1-1-1-1-1-1-1-1-1-1-0-0-0-0-0-0-0-0--8--8--8--8--8--8--8--8--|

VERSE 2: - Guitar 2
|----------------------------------------------------8--8--8--8--8--8--8--8--|
|----------------------------------------------------8--8--8--8--8--8--8--8--|
|---7-7-7-7-7-7-7-7-7-7-7-7-7-7-7-7-7-7-7-7-7-7-7-7--------------------------|
|---8-8-8-8-8-8-8-8-8-8-8-8-8-8-8-8-7-7-7-7-7-7-7-7--------------------------| (x4)
|----------------------------------------------------------------------------|
|----------------------------------------------------------------------------|



OUTRO:     p.m
|-------------------------------|
|-------------------------------|
|-------------------------------|
|-------0-0--------0-0-0-0-0-0--| (x19) Fades out after 16th bar.
|-------0-0--------0-0-0-0-0-0--|


Important: The song above is NOT stored on the Chordie server. The original song is hosted at www.xguitar.com. Chordie works as a search engine and provides on-the-fly formatting. Chordie does not index songs against artists/composers will. To remove this song please click here.

This song is displayed as text-only. Transposing and tuning is only available for chordpro-songs.

Login - add to songbook

Rating click stars to rate

Layout
Accuracy

SHARE PAGE  




You need to log in to post comments