Chordie logo


Vide Infra    Killswitch Engage



PM (_)– palm mute
\ - slide down
/ - slide up

Tuning: D G C F A D

I must have looked all over the internet for this song; nowhere, so I decided to
 tab it myself. Quite a quick job but its more or less 100% correct. If anyone
 dares try to correct it, be my guest:


Intro/verse  x2
|-------------------------------------------------------------------|
|-------------------------------------------------------------------|
|------------------------------5--4---------------------------------|
|--2----------------2-3--5---3-5--2------------2-3--5-----3-4---4-5-|
|--2---------------------5---3-3--2-----------------5-----3-4---4-5-|
|--0--0-0-0--0-0-0-------3---1----0-0-0-0-0-0-0-----3---0-1-2-0-2-3-|
PM    _ _ _    _ _ _                _ _ _ _ _ _           _ _   _ _

v. fast alt picking x4                                            on the last one x1
|----------------------------------------------------------------|-----------------|
|----------------------------------------------------------------|-----------------|
|----------------------------------------------------------------|-4-------------4-|
|---------------------------------2-2-2-2-2-2-2-2-3-3-3-3-3-3-3-3|-2-------------2-|
|--2-2-2-2-2-2-2-2-3-3-3-3-3-3-3-3-------------------------------|-2-------------2-|
|----------------------------------------------------------------|-0-0-0-0-0-0-0-0-|
                                                               PM    _ _ _ _ _ _

intro/verse x2

v.fast alt picking x4 (without the bit at the end

Chorus
|-------------------------------------------------------------------
|-------------------------------------------------------------------
|---------------------------------------------------9/10\9----------
|--9/10\9----------9/10\9----------9/10\9-----------9/10\9----------
|--9/10\9----------9/10\9-7--------9/10\7-----------7/8 \7-7--------
|--7/8 \7-0-0-0-0--7/8 \7--0-8-7---7/8 \7--0-0-0-0----------0-8-7---
PM        _ _ _ _                          _ _ _ _

Bit after the Chorus Guitar 1       x 2
|----------------------------------------------------|
|----------------------------------------------------|
|----------------------------------------------------|
|--2--------3--------5----2---------3---2-3-2--------|
|--2--------3--------5----2---------3--------2-3-2-0-|
|--0--------1--------3----0---------1----------------|

Guitar 2  about x 8
|------------------------------------------|
|------------------------------------------|
|------------------------------------------|
|------------------------------------------|
|------------------------------------------|
|-0-0-0--0-0-0--0-0-0--0-0-0--0-0-0--0-0-0-|
PM_ _ _  _ _ _  _ _ _  _ _ _  _ _ _  _ _ _

Chorus

'and i'm not afaid to speak my mind' bit
|----------------------------------------------|
|----------------------------------------------|
|----------------------------------------------|
|-4-5-7-4-5-7-4-5-7-4-5-7-4-7-7----x4----------|
|----------------------------------------------|
|----------------------------------------------|

then x4
|-------------------------------------------------|
|-------------------------------------------------|
|-4-4-4-4-4-4-5-5-5-5-5-5-7-7-7-7-7-7-9-9-9-9-9-9-|
|-------------------------------------------------|
|-------------------------------------------------|
|-------------------------------------------------|

outro                                then
|-----------------------------------------------------|
|-----------------------------------------------------|
|------9------9------9------9-------------9-----------|
|---9-------9------9------9------[x2]-----9-3-2-------|
|----7--7----7-7----7-7----7-7------------7-3-2-------|
|--0-------0------8------8------------------1-0-------|

Cheers all, i'll try n do some more killswitch songs later on
Page.
Ive made a correction to the chorus, i realised today.
also thanks for the corrects, i couldnt figure out the other bit at the end sos and
 yes they did play it in drop C live but that only because songs off alive or just
 breathing are in drop. vide infra is origionally off the self-titled album and all
 the songs on that were played in d standerd + there aont any open C's in this song


Important: The song above is NOT stored on the Chordie server. The original song is hosted at www.xguitar.com. Chordie works as a search engine and provides on-the-fly formatting. Chordie does not index songs against artists/composers will. To remove this song please click here.

This song is displayed as text-only. Transposing and tuning is only available for chordpro-songs.

Login - add to songbook

Rating click stars to rate

Layout
Accuracy

SHARE PAGE  




You need to log in to post comments