Guitar Tabs, Chords and Lyrics


Without a Name    Killswitch Engage



Killswitch Engage
Without a name
Tabbed by:Kyle Mitchell
E-mail:Trowaclownface@hotmail.com

Tuning from low to high: D G C F A D
It's basically just the same thing over and over.Excpet the intro.


Intro
|-3-----3----2--------------------------------------------|
|--------------------3------3----3----3----3--------------|
|---0-----0----0---------0----0----0----0-----------------|
|---------------------------------------------------------|
|---------------------------------------------------------|
|---------------------------------------------------------|

|-7----7----5-----2------2------2------2-----2------------|
|---------------------------------------------------------|
|---0----0-----0------0-----0------0------0---------------|
|---------------------------------------------------------|
|---------------------------------------------------------|
|---------------------------------------------------------|

Main part.

Guitar 1.
|-0-2-3--3--2--2h3--3--3--3--3----------------------------|
|-----3--3--3--3----3--3--3--3----------------------------|
|-----0--0--0--0----0--0--0--0----------------------------|
|-----2--2--2--2----2--2--2--2----------------------------|
|---------------------------------------------------------|
|---------------------------------------------------------|

Guitar 2.
|------3~----3~-------3~------------------------------------|
|------3~----3~-------3~------------------------------------|
|------0~----0~-------0~------------------------------------|
|------2~----2~-------2~------------------------------------|
|------2~----2~-------2~------------------------------------|
|-0-2-------------------------------------------------------|

|------3~----3~-------3~------------------------------------|
|------3~----3~-------3~------------------------------------|
|------0~----0~-------0~------------------------------------|
|------2~----2~-------2~------------------------------------|
|------3~----3~-------3~------------------------------------|
|-0-2-------------------------------------------------------|

Fill
|--------3---------2-3--5-3-------|
|------3---3----------------3-----|
|----0-------0----------------0---|
|-2------------2------------------|
|---------------------------------|


Important: The song above is NOT stored on the Chordie server. The original song is hosted at www.xguitar.com. Chordie works as a search engine and provides on-the-fly formatting. Chordie does not index songs against artists'/composers' will. To remove this song please click here.

This song is displayed as text-only. Transposing and tuning is only available for chordpro-songs.

Login - add to songbook

Rating click stars to rate

Layout
Accuracy

SHARE PAGE  




You need to log in to post comments