Guitar Tabs, Chords and Lyrics


Breathe Life    Killswitch Engage



intro

-|----------------------------------------------------------------------|
-|----------------------------------------------------------------------|
-|----------------------------------------------------------------------|
c|-x//////////----------------------------------------------------------|
g|-x//////////---5h6p5-0000000--10h12p10-----8h10p8-----6h8p8-----5h6p5-|
c|-x//////////---------0000000------------0----------0------------------|
   pick slide         pm-----
|----------------------------------------------------------------------|
|----------------------------------------------------------------------|
|----------------------------------------------------------------------|
|----------------------------------------------------------------------|
|--0000000-------------------------------------------------------------|
|--0000000--5h7p5--0--3h5p3--0--1h3p5--0h1p0---------------------------|
   pm-----
|----------------------------------------------------------------------|
|----------------------------------------------------------------------|
|----------------------------------------------------------------------|
|----------------------------------------------------------------------|
|--0000000--10h12p10-----8h10p8-----6h8p8-----5h6p5--------------------|
|--0000000------------0----------0-------------------------------------|
   pm-----

|----------------------------------------------------------------------|
|----------------------------------------------------------------------|
|----------------------------------------------------------------------|
|-------------------10\8p7-8-7-----------------------------------------|
|--0000000---7h8/10------------10-4/5----------------------------------|
|--0000000-------------------------------------------------------------|
   pm-----

|----------------------------------------------------------------------|
|----------------------------------------------------------------------|
|----------------------------------------------------------------------|
|----------------------------------------------------------------------|
|--0000000--10h12p10-----8h10p8-----6h8p8-----5h6p5--------------------|
|--0000000------------0----------0-------------------------------------|
   pm-----

|----------------------------------------------------------------------|
|----------------------------------------------------------------------|
|----------------------------------------------------------------------|
|----------------------------------------------------------------------|
|--0000000-------------------------------------------------------------|
|--0000000--5h7p5--0--3h5p3--0--1h3p5--0h1p0---------------------------|
   pm-----

|----------------------------------------------------------------------|
|----------------------------------------------------------------------|
|----------------------------------------------------------------------|
|----------------------------------------------------------------------|
|--0000000--10h12p10-----8h10p8-----6h8p8-----5h6p5--------------------|
|--0000000------------0----------0-------------------------------------|

|----------------------------------------------------------------------|
|----------------------------------------------------------------------|
|----------------------------------------------------------------------|
|-------------------10\8p7-8-7-----------------------------------------|
|--0000000---7h8/10------------10-4/5----------------------------------|
|--0000000-------------------------------------------------------------|

verse1

|---------------------------------------------------------------------------|
|---------------------------------------------------------------------------|
|--------r-------r-------r-------r------------------------------------------|
|--------e-------e-------e-------e------------------------------------------|x4
|--00000-s-00000-s-00000-s-00000-s-000-0-0--8-x-x-10-x-x--------------------|
|--00000-t-00000-t-00000-t-00000-t-000-0-0--8-x-x-10-x-x--------------------|

|-----------------------------------------------------------------------------|
|-----------------------------------------------------------------------------|
|-----------------------------------------------------------------------------|
|-----------------------------------------------------------------------------|
|--5h6p5--0000000--10h12p10-----8h10p8-----6h8p8-----5h6p5--------------------|
|---------0000000------------0----------0-------------------------------------|

|----------------------------------------------------------------------|
|----------------------------------------------------------------------|
|----------------------------------------------------------------------|
|----------------------------------------------------------------------|
|--0000000-------------------------------------------------------------|
|--0000000--5h7p5--0--3h5p3--0--1h3p5--0h1p0---------------------------|


|----------------------------------------------------------------------|
|----------------------------------------------------------------------|
|----------------------------------------------------------------------|
|----------------------------------------------------------------------|
|--0000000--10h12p10-----8h10p8-----6h8p8-----5h6p5--------------------|
|--0000000------------0----------0-------------------------------------|

|----------------------------------------------------------------------|
|----------------------------------------------------------------------|
|----------------------------------------------------------------------|
|-------------------10\8p7-8-7-----------------------------------------|
|--0000000---7h8/10------------10-4/5----------------------------------|
|--0000000-------------------------------------------------------------|

verse2
|---------------------------------------------------------------------------|
|---------------------------------------------------------------------------|
|--------r-------r-------r-------r------------------------------------------|
|--------e-------e-------e-------e------------------------------------------|x4
|--00000-s-00000-s-00000-s-00000-s-000-0-0--8-x-x-10-x-x--------------------|
|--00000-t-00000-t-00000-t-00000-t-000-0-0--8-x-x-10-x-x--------------------|

|-----------------------------------------------------------------------------|
|-----------------------------------------------------------------------------|
|-----------------------------------------------------------------------------|
|-----------------------------------------------------------------------------|
|--5h6p5--0000000--10h12p10-----8h10p8-----6h8p8-----5h6p5--------------------|
|---------0000000------------0----------0-------------------------------------|

|----------------------------------------------------------------------|
|----------------------------------------------------------------------|
|----------------------------------------------------------------------|
|----------------------------------------------------------------------|
|--0000000-------------------------------------------------------------|
|--0000000--5h7p5--0--3h5p3--0--1h3p5--0h1p0---------------------------|


|----------------------------------------------------------------------|
|----------------------------------------------------------------------|
|----------------------------------------------------------------------|
|----------------------------------------------------------------------|
|--0000000--10h12p10-----8h10p8-----6h8p8-----5h6p5--------------------|
|--0000000------------0----------0-------------------------------------|

|----------------------------------------------------------------------|
|----------------------------------------------------------------------|
|----------------------------------------------------------------------|
|-------------------10\8p7-8-7-----------------------------------------|
|--0000000---7h8/10------------10-4/5----------------------------------|
|--0000000-------------------------------------------------------------|


|---------------------------------------------------------------------------|
|---------------------------------------------------------------------------|
|--------r-------r-------r-------r------------------------------------------|
|--------e-------e-------e-------e------------------------------------------|x4
|--00000-s-00000-s-00000-s-00000-s-000-0-0--8-x-x-10-x-x--------------------|
|--00000-t-00000-t-00000-t-00000-t-000-0-0--8-x-x-10-x-x--------------------|

breathe life......

|----------------------------------------------------------------------|
|----------------------------------------------------------------------|
|----------------------------------------------------------------------|
|-12----10----8-----7-----5----3-----0-0-0-0-0-0-0-0-0-0-0-0-----------|X2
|-12----10----8-----7-----5----3-----0-0-0-0-0-0-0-0-0-0-0-0-----------|


Important: The song above is NOT stored on the Chordie server. The original song is hosted at www.xguitar.com. Chordie works as a search engine and provides on-the-fly formatting. Chordie does not index songs against artists'/composers' will. To remove this song please click here.

This song is displayed as text-only. Transposing and tuning is only available for chordpro-songs.

Login - add to songbook

Rating click stars to rate

Layout
Accuracy

SHARE PAGE  




You need to log in to post comments