Guitar Tabs, Chords and Lyrics


Declaration    Killswitch Engage



================================================================================
         Title : Declaration
        Artist : Killswitch Engage
         Album : The End of Heartache
   Record Label: Road Runner Records
           Date: 7/14/2004
Transcribed by : sumpm1 
        Tuning : B F# D A E B

 Release Notes : This baby was pretty tough. This is my first tab submitted
                 woohoo.For correct timings, listen to song, I am quite sure
                 that everything is right. As for the tuning, all of the
                 other Killswitch Engage tabs say that they use a Drop C
                 tuning, but I can attest for sure that there are plenty of
                 their songs that go lower than C. This songs is in B.
                 I have never seen KE play live, so I can't say what their
                 actual tuning is, but I have never seen a picture shoot of
                 them, including their newest video with 7 string guitars.
                 It's just a 6 string with standard tuning very low at B.
================================================================================


 Gtr I
 |       |       |       |        |       |       |       |
|--------------------------------|--------------------------------|
|--------------------------------|--------------------------------|
|--5---5-6-8-6-5-6-5-------------|--5---5-6-8-6-5-6-5-------------|
|--------------------8-6-8-6-5---|--------------------8-6-8-6-5---|
|8---8-------------------------8-|7---7-------------------------7-|
|--------------------------------|--------------------------------|
 Gtr II
 |       |       |       |        |       |       |       |
|--------------------------------|--------------------------------|
|--------------------------------|--------------------------------|
|--------------------------------|--------------------------------|
|--------------------------------|5-------------------------------|
|3-------------------------------|3-------------------------------|
|1-------------------------------|3-------------------------------|



 Gtr I
 |       |       |       |        |       |       |       |
|--------------------------------|--------------------------------|
|--------------------------------|----------------8-9-6-8-6-5-----|
|--5---5-6-8-6-5-6-5-------------|--5---5-6-8-6-5-------------6-5-|
|--------------------8-6-8-6-5---|--------------------------------|
|8---8-------------------------8-|7---7---------------------------|
|--------------------------------|--------------------------------|
|Gtr II
 |       |       |       |        |       |       |       |
|--------------------------------|--------------------------------|
|--------------------------------|--------------------------------|
|--------------------------------|--------------------------------|
|--------------------------------|5-------------------------------|
|3-------------------------------|3-------------------------------|
|1-------------------------------|3-------------------------------|



 Gtr I
 |       |       |       |        |       |       |       |
|--------------------------------|--------------------------------|
|--------------------------------|--------------------------------|
|--------------------------------|--------------------------------|
|--------------------------------|--2---2-------------------------|
|--3---3-4-6-4-3---3-------------|--2---2-4-6-4-3---3-------------|
|1---1-----------6---6-4-6-4-3-1-|0---0-----------6---6-4-6-4-3-0-|
 Gtr II
 |       |       |       |        |       |       |       |
|--------------------------------|--------------------------------|
|--------------------------------|--------------------------------|
|--------------------------------|--------------------------------|
|--------------------------------|--------------------------------|
|3-3-----3-3-----------------2-2-|----2-2-------------------------|
|1-1-----1-1-----------------0-0-|----0-0-------------------------|



 Gtr I
 |       |       |       |        |       |       |       |
|--------------------------------|--------------------------------|
|--------------------------------|--------------------------------|
|--------------------------------|--------------------------------|
|--------------------------------|--2---2---------5-6-3-5-3-2-----|
|--3---3-4-6-4-3---3-------------|--2---2-4-6-4-3-------------4-3-|
|1---1-----------6---6-4-6-4-3-1-|0---0---------------------------|
Gtr II
 |       |       |       |        |       |       |       |
|--------------------------------|--------------------------------|
|--------------------------------|--------------------------------|
|--------------------------------|--------------------------------|
|--------------------------------|--------------------------------|
|3-3-----3-3-----------------2-2-|----2-2-------------------------|
|1-1-----1-1-----------------0-0-|----0-0-------------------------|



 Gtr I
 |       |       |       |        |       |       |       |
|--------------------------------|--------------------------------|
|--------------------------------|--------------------------------|
|1---------------------1---3---1-|--------------------------------|
|--------------------------------|--------------------------------|
|--------------------------------|----------------------1---3-----|
|--1-1-1-1-1-1-1-1-1-------------|--1-1-1-1-1-1-1-1-1-----------4-|



 Gtr I
 |       |       |       |        |       |       |       |
|--------------------------------|--------------------------------|
|--------------------------------|--------------------------------|
|1---------------------1---3---1-|--------------------------------|
|--------------------------------|--------------------------------|
|--------------------------------|--------------------------------|
|--1-1-1-1-1-1-1-1-1-------------|--------------------------------|



 Gtr I
 |       |       |       |        |       |       |       |
|--------------------------------|--------------------------------|
|--------------------------------|--------------------------------|
|----3-6-3-----6-9-6-------------|--------------------------------|
|--------------------------------|--------------------------------|
|1-4-------4-7-------7-4-1-------|--------------------------------|
|--------------------------------|--------------------------------|
 Gtr II
 |       |       |       |        |       |       |       |
|----------------3---------------|--------------------------------|
|------5-------2---2-------------|--------------------------------|
|----3---3-----------3-1-3-------|--------------------------------|
|----------3-6-------------------|--------------------------------|
|4-7-----------------------------|--------------------------------|
|--------------------------------|--------------------------------|




 Gtr I
 |       |       |       |        |       |       |       |
|--------------------------------|--------------------------------|
|--------------------------------|--------------------------------|
|--------------------------------|--------------------------------|
|3-3-3-3-3-3-3-3-5-5-5-5-6-6-6-6-|3-3-3-3-3-3-3-3-5-5-5-5-6-6-6-6-|
|--------------------------------|--------------------------------|
|--------------------------------|--------------------------------|
 Gtr II
 |       |       |       |        |       |       |       |
|--------------------------------|--------------------------------|
|--------------------------------|--------------------------------|
|--------------------------------|--------------------------------|
|--------------------------------|--------------------------------|
|1-1-1-1-1-1-1-1-1-1-1-1-1-1-1-1-|3-3-3-3-3-3-3-3-3-3-3-3-3-3-3-3-|
|--------------------------------|--------------------------------|



 Gtr I
 |       |       |       |        |       |       |       |
|--------------------------------|--------------------------------|
|--------------------------------|--------------------------------|
|--------------------------------|3-3-3-3-3-3-3-3-----------------|
|3-3-3-3-3-3-3-3-5-5-5-5-6-6-6-6-|----------------5-5-5-5-6-6-6-6-|
|--------------------------------|--------------------------------|
|--------------------------------|--------------------------------|
 Gtr II
 |       |       |       |        |       |       |       |
|--------------------------------|--------------------------------|
|--------------------------------|--------------------------------|
|--------------------------------|--------------------------------|
|--------------------------------|--------------------------------|
|4-4-4-4-4-4-4-4-4-4-4-4-4-4-4-4-|6-6-6-6-6-6-6-6-6-6-6-6-6-6-6-6-|
|--------------------------------|--------------------------------|



 Gtr I
 |       |       |       |        |       |       |       |
|--------------------------------|--------------------------------|
|--------------------------------|--------------------------------|
|--------------------------------|--------------------------------|
|3-------3-------5-------6-------|3-------3-------5-------6-------|
|--1-1-1---1-1-1---1-1-1---1-1-1-|--3-3-3---3-3-3---3-3-3---3-3-3-|
|--------------------------------|--------------------------------|
Gtr II
 |       |       |       |        |       |       |       |
|--------------------------------|--------------------------------|
|--------------------------------|--------------------------------|
|--------------------------------|--------------------------------|
|--------------------------------|--------------------------------|
|1-1-1-1-1-1-1-1-1-1-1-1-1-1-1-1-|3-3-3-3-3-3-3-3-3-3-3-3-3-3-3-3-|
|--------------------------------|--------------------------------|



 Gtr I
 |       |       |       |        |       |       |       |
|--------------------------------|--------------------------------|
|--------------------------------|--------------------------------|
|--------------------------------|3-------3-----------------------|
|3-------3-------5-------6-------|----------------5-------6-------|
|--4-4-4---4-4-4---4-4-4---4-4-4-|--6-6-6---6-6-6---6-6-6---6-6-6-|
|--------------------------------|--------------------------------|
 Gtr II
 |       |       |       |        |       |       |       |
|--------------------------------|--------------------------------|
|--------------------------------|--------------------------------|
|--------------------------------|--------------------------------|
|--------------------------------|--------------------------------|
|4-4-4-4-4-4-4-4-4-4-4-4-4-4-4-4-|6-6-6-6-6-6-6-6-6-6-6-6-6-6-6-6-|
|--------------------------------|--------------------------------|



 Gtr I
 |       |       |       |        |       |       |       |
|--------------------------------|--------------------------------|
|--------------------------------|--------------------------------|
|--------------------------------|--------------------------------|
|3-------3-------5-------6-------|3-------3-------5-------6-------|
|--1-1-1---1-1-1---1-1-1---1-1-1-|--3-3-3---3-3-3---3-3-3---3-3-3-|
|--------------------------------|--------------------------------|
 Gtr II
 |       |       |       |        |       |       |       |
|--------------------------------|--------------------------------|
|------------------------1-------|------------------------1-------|
|1-------1-------3---------------|1-------1-------3---------------|
|--------------------------------|--------------------------------|
|--1-1-1---1-1-1---1-1-1---1-1-1-|--3-3-3---3-3-3---3-3-3---3-3-3-|
|--------------------------------|--------------------------------|



 Gtr I
 |       |       |       |        |       |       |       |
|--------------------------------|--------------------------------|
|--------------------------------|--------4-------1-------1-------|
|--------------------------------|3-------------------------------|
|3-------3-------5-------6-------|1-1-1-1---1-1-1---2-2-2---2-2-2-|
|--4-4-4---4-4-4---4-4-4---4-4-4-|--------------------------------|
|--------------------------------|--------------------------------|
 Gtr II
 |       |       |       |        |       |       |       |
|--------------------------------|--------------------------------|
|------------------------1-------|--------4-------1-------1-------|
|1-------1-------3---------------|3-------------------------------|
|--------------------------------|1-1-1-1---1-1-1---2-2-2---2-2-2-|
|--4-4-4---4-4-4---4-4-4---4-4-4-|--------------------------------|
|--------------------------------|--------------------------------|



 Gtr I
 |   |   |   |    |   |   |   |    |   |   |   |    |   |   |   |
|----------------|----------------|----------------|----------------|
|----------------|----------------|------------1-1-|----------------|
|1-1-1-1-1-1-1-1-|1-1-1-1-1-1-1-1-|1-1-1-1-3-3-----|----------------|
|----------------|----------------|----------------|2-2-2-2-3-3-5-5-|
|----------------|----------------|----------------|----------------|
|----------------|----------------|----------------|----------------|
 Gtr II
 |   |   |   |    |   |   |   |    |   |   |   |    |   |   |   |
|----------------|----------------|----------------|----------------|
|----------------|----------------|----------------|----------------|
|----------------|----------------|----------------|----------------|
|----------------|2---------------|6---------------|5---------------|
|3---------------|3---------------|4---------------|3---------------|
|1---------------|----------------|----------------|----------------|



 Gtr I
 |   |   |   |    |   |   |   |
|----------------|----------------|
|--------1-1-----|----------------|
|1-1-1-1-----3-3-|----------------|
|----------------|2-2-2-2-3-3-5-5-|
|----------------|----------------|
|----------------|----------------|
 Gtr II
 |   |   |   |    |   |   |   |
|----------------|----------------|
|----------------|----------------|
|----------------|----------------|
|6---------------|5---------------|
|4---------------|3---------------|


Important: The song above is NOT stored on the Chordie server. The original song is hosted at www.xguitar.com. Chordie works as a search engine and provides on-the-fly formatting. Chordie does not index songs against artists'/composers' will. To remove this song please click here.

This song is displayed as text-only. Transposing and tuning is only available for chordpro-songs.

Login - add to songbook

Rating click stars to rate

Layout
Accuracy

SHARE PAGE  




You need to log in to post comments