Chordie logo


When Darkness Falls    Killswitch Engage



Killswitch Engage - When Darkness Falls
Tabbed By: slipknotskater15
Email: WeaverSons@aol.com

Tuning: Open C (C G C G C E)



Palm Mute- ....
Pinch Harmonic- *
Slide- /
Ring Out- ~~~
Hammer On- h
Pull Off- p

Intro
Guitar 1&2:
----------------------------------------------------------------------
----------------------------------------------------------------------
----------------------------------------------------------------------
----------------------------------------------------------------------
-4-----3-----5-4-----4-----3-----5-4-----4-----3-----5-4--------------
-4--0--3--0--5-4--0--4--0--3--0--5-4--0--4--0--3--0--5-4--------------
    .     .       .     .     .       .     .     .

----------------------------------------------------------------------
----------------------------------------------------------------------
----------------------------------------------------------------------
----------8-8-8-8-7-7-7-----------------------------------------------
----4-----7-7-7-7-6-6-6--4-----3-----5-4-----4-----3-----5-4----------
-0--4--0-----------------4--0--3--0--5-4--0--4--0--3--0--5-4----------
 .     .                    .     .       .     .     .

----------------------------------------------------------------------
----------------------------------------------------------------------
----------------------------------------------------------------------
----------------------------------------------------------------------
----4-----3-----5-4-----4-------4--3--3*------------------------------
-0--4--0--3--0--5-4--0--4--0-0--4--3----------------------------------
 .     .     .       .     . .  .  .

Interlude
Guitar 1:
----------------------------------------------------------------------
----------------------------------------------------------------------
----------------------------------------------------------------------
----------------------------------------------------------------------
-4-----3-----5-4-----4------------------------------------------------
-4--0--3--0--5-4--0--4------------------------------------------------
    .     .       .

Guitar 2: Just slide into it

Verse
Guitar 1&2:
-------------------------------------------------------------------------------
-------------------------------------------------------------------------------
-------------------------------------------------------------------------------
-------------------------------------------------------------------------------
-4-----3-----5-4-----4-----------4-----3-----5-4-----4-----------4-5-4-3-0--3*-
-4--0--3--0--5-4--0--4-----------4--0--3--0--5-4--0--4-----------4-5-4-3-0-----
    .     .       .                 .     .       .              . . . . .

Guitar 1: (After the verse is played twice guitar 1 does this)
-------------------------------------------------------------------------------
-------------------------------------------------------------------------------
-------------------------------------------------------------------------------
-------------------------------------------------------------------------------
-4-----3-----5-4-----4-----------4-----3-----5-4-----4-----------4-5-4-3-0--3*-
-4--0--3--0--5-4--0--4--0-0-0-0--4--0--3--0--5-4--0--4--0-0-0-0--4-5-4-3-0-----
    .     .       .     . . . .     .     .       .     . . . .  . . . . .

Bridge
Guitar 1:
------------------------------------------------------------------------
------------------------------------------------------------------------
------------------------------------------------------------------------
-------------------3--3--3--3--3--3--5--5--5--5--5--5--7--7--7--7--7--7-
-0--0-----0--0-----1--1--1--1--1--1--3--3--3--3--3--3--5--5--5--5--5--5-
-0--0--0--0--0--0-------------------------------------------------------
       .        .        .        .        .        .        .

Guitar 2:
--------------------------------------------------------------------------
--------------------------------------------------------------------------
-6/7-7-7--6/7-7-7--6/7-7-7--6/7-7-7---7/5-5-5--7/5-5-5---6/7-7-7--6/7-7-7-
-x-x-x-x--x-x-x-x--x-x-x-x--x-x-x-x---x-x-x-x--x-x-x-x---x-x-x-x--x-x-x-x-
-4/5-5-5--4/5-5-5--4/5-5-5--4/5-5-5---5/3-3-3--5/3-3-3---4/5-5-5--4/5-5-5-
--------------------------------------------------------------------------

Guitar 1&2:
------------------------------------------------------------------------------
------------------------------------------------------------------------------
-12/14-14-14--12/14-14-14--14/17-17-17--14/17-17-17--14/12-12-12--14/12-12-12-
-x--x--x--x---x--x--x--x---x--x--x--x---x--x--x--x---x--x--x--x---x--x--x--x--
-10/12-12-12--10/12-12-12--12/15-15-15--12/15-15-15--12/10-10-10--12/10-10-10-
------------------------------------------------------------------------------

-----------------------------------------------------------------------
-----------------------------------------------------------------------
-12/14-14-14-14-------7~~~---------------------------------------------
-x--x--x--x--x--------x------------------------------------------------
-10/12-12-12-12-------5~~~---------------------------------------------
-----------------------------------------------------------------------

Chorus
Guitar 1:
-----------------------------------------------------------------------
-----------------------------------------------------------------------
-----------------------------------------------------------------------
-3--3--3---5-------------5---3--3--3---5-------------------------------
-1--1--1---3---0--0--0---3---1--1--1---3---0--0---0-3-3-0-5-3----------
---------------0--0--0---------------------0--0---0-3-3-0-5-3----------
                                                  . . . . .

Guitar 2:
------------12---------------------10----------------------------------
--------11------11~------------10------10~-----------------------------
-9--10------------------9--10------------------------------------------
-----------------------------------------------------------------------
-----------------------------------------------------------------------
-----------------------------------------------------------------------

Break
Guitar 1:
-----------------------------------------------------------------------
-----------------------------------------------------------------------
-----------------------------------------------------------------------
-----------------------------------------------------------------------
-0~~~~~--------------------------Pick Slide----------------------------
-0~~~~~----------------------------------------------------------------

Guitar 2: (Start this after the bass plays it once.)
-----------------------------------------------------------------------
-----------------------------------------------------------------------
-----------------------------------------------------------------------
-----------------------------------------------------------------------
-0-0-0-0-0-1-0--0-3-4-3-0-2-3-2-0--------------------------------------
-0-0-0-0-0-1-0--0-3-4-3-0-2-3-2-0--------------------------------------
 . . . . . . .  . . . . . . . . .

Guitar 1:
-------------------------------------------------------------------------
-------------------------------------------------------------------------
---------------------------------------------------------7h8p7-----------
---------------------------------------------------------------10-8-7-8~-
-0-0-0-0-0-1-0--0-3-4-3-0-2-3-2-0----0-0-0-0-0-1-0---0-------------------
-0-0-0-0-0-1-0--0-3-4-3-0-2-3-2-0----0-0-0-0-0-1-0---0-------------------
   . .   .      . . . . . . . . .      . .   .       .

Guitar 2:
------------------------------------------------------------------------------
------------------------------------------------------------------------------
---------------------------------------------------------10h12p10-------------
------------------------------------------------------------------12-10-9-10~-
-0-0-0-0-0-1-0--0-3-4-3-0-2-3-2-0----0-0-0-0-0-1-0---0------------------------
-0-0-0-0-0-1-0--0-3-4-3-0-2-3-2-0----0-0-0-0-0-1-0---0------------------------
   . .   .      . . . . . . . . .      . .   .       .

Guitar 1&2:
-----------------------------------------------------------------------
-----------------------------------------------------------------------
-----------------------------------------------------------------------
-----------------------------------------------------------------------
-0-0-0-0-0-1-0--0-3-4-3-0-2-3-2-0----0-0-0-0-0-1-0--0-4-5-4-0-3-4-3-0--
-0-0-0-0-0-1-0--0-3-4-3-0-2-3-2-0----0-0-0-0-0-1-0--0-4-5-4-0-3-4-3-0--
   . .   .      . . . . . . . . .      . .   .      . . . . . . . . .

Play this on the last one.
------------------------------
------------------------------
------------------------------
--------------------3-3--5-5--
-0-0-0-0-0-1-0---0--1-1--3-3--
-0-0-0-0-0-1-0---0------------
   . .   .       .

Bridge
-----------12-----
--------11----11~-
-9--10------------
------------------
------------------
------------------

End Note
----------
----------
----------
-3~~~-----
-1~~~-----


Important: The song above is NOT stored on the Chordie server. The original song is hosted at www.xguitar.com. Chordie works as a search engine and provides on-the-fly formatting. Chordie does not index songs against artists/composers will. To remove this song please click here.

This song is displayed as text-only. Transposing and tuning is only available for chordpro-songs.

Login - add to songbook

Rating click stars to rate

Layout
Accuracy

SHARE PAGE  




You need to log in to post comments