Guitar Tabs, Chords and Lyrics
Major upgrade!! After one year development the new version of Chordie is now online! Please give feedback.


Abigail  King Diamond

pige@deakin.edu.au
King Diamond----Abigail
Legend:
 
 -------

P.M--- mute
b bend
H hammer on
P pull
^ Raise with trem bar
/\/\ vibrato
/ slide up
\ slide down
T tap
Title: "Abigail", taken from the King Diamond album Abigail.
Intro
 
 P.M-----------------------------------------------------------------
 E:--------------------------|----------------------|
 B:--------------------------|----------------------|
 G:--------------------------|----------------------|
 D:-------6-7-6--------------|------6-7-6-----------|
 A:---7-8-------8-7--5--7--8-|--7-8-------8-7--5--7-|
 E:0-------------------------|0---------------------|
 E:--------------------------|----------------------|
 B:--------------------------|----------------------|
 G:--------------------------|----------------------|
 D:-------6-7-6--------------|----------------------|
 A:---7-8-------8-7--5--7--8-|0---3---8---7---5---3-|
 E:0-------------------------|----------------------|
 E:--------------------------|----------------------|
 B:--------------------------|----------------------|
 G:--------------------------|----------------------|
 D:-------6-7-6--------------|------6-7-6-----------|
 A:---7-8-------8-7--5--7--8-|--7-8-------8-7--5--7-|
 E:0-------------------------|0---------------------|
 E:--------------------------|----------------------|
 B:--------------------------|----------------------|
 G:--------------------------|----------------------|
 D:-------6-7-6--------------|----------------------|
 A:---7-8-------8-7--5--7--8-|0---3---8---7---5---3-|
 E:0-------------------------|----------------------|
 E:-------------|---------------|
 B:-------------|---------------|
 G:-------------|--------5------|
 D:3------------|--------5------|
 A:3------------|--------3------|
 E:1------------|---------------|

Gtr 1
 
 E:------------------------------------|------------------------------------|
 B:------------------------------------|------------------------------------|
 G:------------------------------------|------------------------------------|
 D:------9/10-9-----9/10--9-----------9|--9/10-9-10/12---12-10--12-10-/-9---|
 A:------7/8--7-----7/8---7--6-7-6----7|--7/8--7--8/10---10--8--10-8--/-7---|
 E:0-0----------0------------------8--0|0-------0--------------------------0|

|Gtr 2.
 
 E:-------------------------------------|-----------------------------------|
 B:8---(8)------------------------------|-----------------------------------|
 G:7---(7)------------------------------|-----------------------------------|
 D:-------------------------------------|---------10/12--12-10-12-----------|
 A:--------------------------------5--7-|-(7)------8/10--10--8-10-8-10-8/7-7|
 E:-------------------------------------|-----------------------------------|

Abigail, I know your in control of her brain
 
 E:----------------------------------------------------|
 B:----------------------------------------------------|
 G:----------------------------------------------------|
 D:------9/10-9--------9---10----9---------------------|
 A:------7/8--7--------7----8----7---6--7--6-----------|
 E:0-0---------------0--------------------------8----0-|
 Abigail, Oh------------
 E:-----------------------------------------------|
 B:-----------------------------------------------|
 G:-----------------------------------------------|
 D:------9-10--9----10-12------12--10--12--10-----|
 A:------7--8--7----8--10------10--8---10--8------|
 E:0-0------------0-----------------------------0-|

And Iknow that your'e the one that's speaking through her
 
 E:-------------------------------------------------------|
 B:-------------------------------------------------------|
 G:-------------------------------------------------------|
 D:------9/10-9--------9---10----9------------------------|
 A:------7/8--7--------7----8----7------6--7--6-----------|
 E:0-0---------------0-----------------------------8----0-|
 Abigail, Oh------------
 E:-----------------------------------------------|
 B:-----------------------------------------------|
 G:-----------------------------------------------|
 D:------9-10--9----10-12------12--10--12--10-----|
 A:------7--8--7----8--10------10--8---10--8------|
 E:0-0------------0-----------------------------0-|
 Miriam--------------------
 E:-------------------------------------------------------|
 B:-------------------------------------------------------|
 G:-------------------------------------------------------|
 D:------9/10-9--------9---10----9------------------------|
 A:------7/8--7--------7----8----7------6--7--6-----------|
 E:0-0---------------0-----------------------------8----0-|
 Well,canyouhear------ me?----------------
 E:-------------------------------------------------------|
 B:-------------------------------------------------------|
 G:--------------------------------0------------0---------|
 D:------9-10-9-------------4---------------4-------------|
 A:------7--8-7---3--3-/-5--------------3-----------------|
 E:0-0----------------------------------------------------|

Verse2 I am alive
 
 E:-----------------------------------------------|
 B:-----------------------------------------------|
 G:4-------------------4--------------------------|
 D:4-------------------4------4--4--4--4--4--6--6-|
 A:2---2--2--3--2--3---2---2--2--2--2--2--2--4--4-|
 E:-----------------------------------------------|

in--side your wife
 
 E:------------------------------|-------------------------|
 B:-8----8-----------------------|---------------------4---|
 G:-8----8-----------9\----6-----|------6--------------4---|
 D:-6----6-----------9\----6-----|------6------6--5----4---|
 A:-4----4---4-/-7---7\----4-----|------4---0--4--3----2---|
 E:------------------------------|-------------------------|
 Mir-i-am's dead------------
 E:-----------------------------------------------|
 B:-----------------------------------------------|
 G:4-------------------4--------------------------|
 D:4-------------------4------4--4--4--4--4--6--6-|
 A:2---2--2--3--2--3---2---2--2--2--2--2--2--4--4-|
 E:-----------------------------------------------|

I am her head
 
 E:------------------------------|-------------------------|
 B:-8----8-----------------------|-------------------------|
 G:-8----8-----------9\----6-----|------6------------------|
 D:-6----6-----------9\----6-----|------6------6-----7----6|
 A:-4----4---4-/-7---7\----4-----|------4---0--4-----5----8|
 E:------------------------------|-------------------------|

Guitar solo 1. (first bar is two guitars in harmony)
H H P /\/\/\/\ P
 
 E:------------------------|---------------------|------------------------|
 B:-11---11-12--11-12-11---|---------------------|---9-10--9-10-9---9-----|
 G:-11---11-12--11-12-11-12|-------------0--0-- 9|10-------------10---10-9|
 D:----------------------14|---------------------|------------------------|
 A:------------------------|---------------------|------------------------|
 E:------------------------|---------------------|------------------------|

P H H /\/\/\/\/\/\/\/\/\ A.H
 
 E:------------------------|---------------------|------------------------|
 B:------------------------|---------------------|------------------------|
 G:-10-9-7-9-5-7-4-5--4----|---------------------|------------------------|
 D:------------------7-7-6-|---------------------|-----------------5------|
 A:------------------------|-----------------14-/|-8--/----0----5-----5---|
 E:------------------------|---------------------|------------------------|

H H \/\/\/\
 
 E:------------------------|---------------------|------------------------|
 B:------------------------|---------------------|------------------------|
 G:------------------------|---------------------|---5-7-9----------------|
 D:------------------------|---------------------|--------------------0 12|
 A:-------5-7--8-\-7--5--7-|-5-\-3--5--3-\-2-3-5-\-7----------------------|
 E:------------------------|---------------------|------------------------|

b1/2 P H H P
 
 E:------------------------|---14--(14)--12--14---12-14-12-----12-|
 B:-12 \ 14 \ 16-----------|-------------------------------15-----|
 G:------------------------|--------------------------------------|
 D:------------------------|--------------------------------------|
 A:------------------------|--------------------------------------|
 E:------------------------|--------------------------------------|

H H H /\
 
 E:---------------------------------------|-------------------------------|
 B:-15---13---12---13---12----12----------|-----------------------12-13-15|
 G:------------------------14----12--14-11|12----11-------11-12-14--------|
 D:---------------------------------------|---14----12-14-----------------|
 A:---------------------------------------|-------------------------------|
 E:---------------------------------------|-------------------------------|

bfullP H P P
 
 E:--------------------15---17---15-17---15-17-15-14--15-17--15/14|
 B:(15)----------0------------------------------------------------|
 G:--------------0------------------------------------------------|
 D:---------------------------------------------------------------|
 A:---------------------------------------------------------------|
 E:---------------------------------------------------------------|

P /\/\/\/\/\
 
 E:-----14--15--14-----14-----------------|
 B:--17-------------17-----17-------------|
 G:---------------------------------------|
 D:---------------------------------------|
 A:---------------------------------------|
 E:---------------------------------------|

Verse2 I am alive
 
 E:-----------------------------------------------|
 B:-----------------------------------------------|
 G:4-------------------4--------------------------|
 D:4-------------------4------4--4--4--4--4--6--6-|
 A:2---2--2--3--2--3---2---2--2--2--2--2--2--4--4-|
 E:-----------------------------------------------|

in--side your wife
 
 E:------------------------------|-------------------------|
 B:-8----8-----------------------|---------------------4---|
 G:-8----8-----------9\----6-----|------6--------------4---|
 D:-6----6-----------9\----6-----|------6------6--5----4---|
 A:-4----4---4-/-7---7\----4-----|------4---0--4--3----2---|
 E:------------------------------|-------------------------|
 Mir-i-am's dead------------
 E:-----------------------------------------------|
 B:-----------------------------------------------|
 G:4-------------------4--------------------------|
 D:4-------------------4------4--4--4--4--4--6--6-|
 A:2---2--2--3--2--3---2---2--2--2--2--2--2--4--4-|
 E:-----------------------------------------------|

I am her head
 
 E:------------------------------|-------------------------|
 B:-8----8-----------------------|-------------------------|
 G:-8----8-----------9\----6-----|------6------------------|
 D:-6----6-----------9\----6-----|------6------6-----7----6|
 A:-4----4---4-/-7---7\----4-----|------4---0--4-----5----8|
 E:------------------------------|-------------------------|

Abigail, don't you think I know what you've done
 
 E:-------------------------------------------------------|
 B:-------------------------------------------------------|
 G:-------------------------------------------------------|
 D:------9/10-9--------9---10----9------------------------|
 A:------7/8--7--------7----8----7------6--7--6-----------|
 E:0-0---------------0-----------------------------8----0-|
 Abigail, Oh------------
 E:-----------------------------------------------|
 B:-----------------------------------------------|
 G:-----------------------------------------------|
 D:------9-10--9----10-12------12--10--12--10-----|
 A:------7--8--7----8--10------10--8---10--8------|
 E:0-0------------0-----------------------------0-|
 I'll get a priest---------------
 E:-------------------------------------------------------|
 B:-------------------------------------------------------|
 G:-------------------------------------------------------|
 D:------9/10-9--------9---10----9------------------------|
 A:------7/8--7--------7----8----7------6--7--6-----------|
 E:0-0---------------0-----------------------------8----0-|

He will know how to get her soul back
 
 E:-------------------------------------------------------|
 B:-------------------------------------------------------|
 G:--------------------------------0------------0---------|
 D:------9-10-9-------------4---------------4-------------|
 A:------7--8-7---3--3-/-5--------------3-----------------|
 E:0-0----------------------------------------------------|

P.M P.M P.M P.M
 
 E:------------------|------------------|-------------------|
 B:------------------|------------------|-------------------|
 G:------------------|------------------|-------------------|
 D:------------------|-------4--------4-|----4--------------|
 A:------------------|------------------|----------5--4--2--|
 E:--7--6--5--4--3---|-2--2-----2--2----|-2-----2----------5|

P.M P.M
 
 E:-------------------------|
 B:-------------------------|
 G:-----------------------5-|
 D:-------4--------4------5-|
 A:-----------------------3-|
 E:-2--2-----2--2---------3-|

P.M P.M P.M P.M
 
 E:------------------|------------------|-------------------|
 B:------------------|------------------|-------------------|
 G:------------------|------------------|-------------------|
 D:------------------|-------4--------4-|----4--------------|
 A:------------------|------------------|----------5--4--2--|
 E:--7--6--5--4--3---|-2--2-----2--2----|-2-----2----------5|

P.M P.M
 
 E:---------------------------------|
 B:---------------------------------|
 G:-----------------------5-------2-|
 D:-------4--------4------5-------2-|
 A:-----------------------3-------0-|
 E:-2--2-----2--2---------3---------|

(Two guitars playing in unison)
b1/2 /\/\/\/\/ /\/\/\
 
 E:-16--------------------16----14-|---------------12--14-|----------------|
 B:-17--------------------17----15-|-15---------15-14--15-|-14-------------|
 G:--------------------------------|-16---------16--------|-14------4-12-11|
 D:--------------------------------|----------------------|----------------|
 A:--------------------------------|----------------------|----------------|
 E:--------------------------------|----------------------|----------------|

H P
 
 E:--------------------------------|
 B:--------------------------------|
 G:-11-12-11-9-11----9-------------|
 D:---------------12---11-12-9-0-0-|
 A:--------------------------------|
 E:--------------------------------|

(Two guitars playing in unison)
b1/2 /\/\/\/\/ /\/\/\
 
 E:-16--------------------16----14-|---------------12--14-|--------------|
 B:-17--------------------17----15-|-15---------15-14--15-|-14-----------|
 G:--------------------------------|-16---------16--------|-14------12-11|
 D:--------------------------------|----------------------|--------------|
 A:--------------------------------|----------------------|--------------|
 E:--------------------------------|----------------------|--------------|

[B] [B]  
 
 E:--------------------------|
 B:--------------------------|
 G:-11-12-11-9-11-7-9-6-7----|
 D:-----------------------9\-|
 A:--------------------------|
 E:--------------------------|

Jon-a - than This is Miriam
 
 E:-------------|--------------------|------------------------|----------|
 B:-------2-----|-------4------------|------------------------|-------4--|
 G:-------2-----|-------4------------|------------------------|-------4--|
 D:-------2-----|-------4------------|------------------------|-------4--|
 A:-0-0-0-0-----|-2-2-2-2------------|-0-0-0-0-0-0-0--0-0-0-0-|-2-2-2-2--|
 E:-------------|--------------------|------------------------|----------|

Our time is out Re member the stairs
 
 E:-------------|--------------------|------------------------|
 B:-------2-----|-5------------------|-7----------------------|
 G:-------2-----|-5------------------|-7----------------------|
 D:-------2-----|-5------------------|-7----------------------|
 A:-0-0-0-0-----|-3------------------|-5----------------------|
 E:-------------|--------------------|------------------------|

Guitar solo II
(Denner)
 
 --------the only way b h p
 E:--------------------------------------------------------------------|
 B:----------------------------------------------------------7-8-7-----|
 G:------------------------------------------------7-9---/\/\----------|
 D:---------------------b----------------7-7-9-/\/\--------------------|
 A:--------------------7-5---/\/\--5-7-9-------------------------------|
 E:------------------------7-------------------------------------------|

b b(bend 9 only) b b/P b H P
 
 E:-------------------------------19-----------------------------------|
 B:-7------10------P--AH-----20-22----22-19-22-19--19------------------|
 G:9-9-7----9---9-7-9/\/\/\/---------------------21---21-19----19-21-19|
 D:-----0---------------------------------------------------21---------|
 A:--------------------------------------------------------------------|
 E:--------------------------------------------------------------------|

/\/\
 
 E:--------------------------------------------------------p-----------|
 B:-----------------p---------------19----------------17-19-17-15-17-15|
 G:---19----------21-19-21-18-19-21----21-19-21-18-19------------------|
 D:21----21-19---------------------------------------------------------|
 A:------------21------------------------------------------------------|
 E:--------------------------------------------------------------------|

(Two guitars in unison)
^ ^ ^ ^ ^ ^ ^ ^ ^
 
 E:--11/12--15/16/15--12/11-|-12/15-12--11|-------------------------------|
 B:--12/13--16/17/16--13/12-|-13/16-13--12|15-12-13--12-------------------|
 G:-------------------------|-------------|--------14--12-14-12-11--------|
 D:-------------------------|-------------|-----------------------14-13-14|
 A:-------------------------|-------------|-------------------------------|
 E:-------------------------|-------------|-------------------------------|

(guitars in unison)
 
 E:----------------------|-16-17-19-17-16-----17-16----------16-|
 B:----------12-13-15----|-16-17-19-17-16--18-17-16-18-17-18-16-|
 G:-11-12-14-------------|-----------------18-------18-17-18----|
 D:-------------------9--|--------------------------------------|
 A:----------------------|--------------------------------------|
 E:----------------------|--------------------------------------|
 E:17-19-17-16----17----|17171212151512121414121217171212151512-12-14----|
 B:17-19-17-16-18-17-17\|------------------------------------------------|
 G:------------18----17\|------------------------------------------------|
 D:---------------------|------------------------------------------------|
 A:---------------------|------------------------------------------------|
 E:---------------------|------------------------------------------------|

b1/2 H b P b P b P
 
 E:-19----17-17----------------|14-17--14-14-17-14--14-17-14--14-17-14-14|
 B:-------------17-17-20\12/20-|-----17-----------17--------17-----------|
 G:----------------------------|-----------------------------------------|
 D:----------------------------|-----------------------------------------|
 A:----------------------------|-----------------------------------------|
 E:----------------------------|-----------------------------------------|

P b b /\/\/\/\/\/
 
 E:14-17-14-14-14-14-17-17-14-14-17-17-14--------------------------------|
 B:---------------------------------------17--17--------------14-15-17---|
 G:----------------------------------------------------------------------|
 D:----------------------------------------------------------------------|
 A:----------------------------------------------------------------------|
 E:----------------------------------------------------------------------|
 E:----------------------------------------------------------------|
 B:-15-14----------------------------------------------------------|
 G:-------14-14-13-14-14-11-11-11-11-12-9-------9-------9----------|
 D:---------------------------------------11-12---11-12------9-11--|
 A:-------------------------------------------------------11-------|
 E:----------------------------------------------------------------|

b /\/\/\ b+3 /\/\
 
 E:-----------------------------------|------------------------------|
 B:------------------9-12-9-12--------|22-19-22-22-------------16-17-|
 G:---9-11-11-9-9-11------------------|------------------------------|
 D:12---------------------------------|------------------------------|
 A:-----------------------------------|------------------------------|
 E:-----------------------------------|------------------------------|

TP TP TP TP TP TP TP TP TP TP TP TP
 
 E:-----------------------------------------------------------------------|
 B:-----------------------------------------------------------------------|
 G:20-16-20-16-19-15-19-15-18-14-18-14-16-13-16-13-15-12-13-10-13-10-12-8-|
 D:-----------------------------------------------------------------------|
 A:-----------------------------------------------------------------------|
 E:-----------------------------------------------------------------------|

TP TP P P Harm(bend and slowly release)
 
 E:-----------------------------------|------------------------|
 B:-----------------------------------|------------------------|
 G:-11-7-11-6-4-2----2----------------|-7----------------------|
 D:-----------------------------------|-5-----8------7---------|
 A:-----------------------------------|-------6------5---------|
 E:-----------------------------------|------------------------|
 E:-----------------------------------|------------------------------|
 B:-8---------------------------------|-5----------------------------|
 G:-8---------------------------------|-5----6---7-----8-------------|
 D:-6---------------------------------|-5----6---7-----8-------------|
 A:-4---------------------------------|-3----4---5-----6-------------|
 E:-----------------------------------|------------------------------|

Abigail, nothing I can do but give in
 
 E:----------------------------------------------------|
 B:----------------------------------------------------|
 G:----------------------------------------------------|
 D:------9/10-9--------9---10----9---------------------|
 A:------7/8--7--------7----8----7---6--7--6-----------|
 E:0-0---------------0--------------------------8----0-|
 Abigail, Oh------------
 E:-----------------------------------------------|
 B:-----------------------------------------------|
 G:-----------------------------------------------|
 D:------9-10--9----10-12------12--10--12--10-----|
 A:------7--8--7----8--10------10--8---10--8------|
 E:0-0------------0-----------------------------0-|
 Follow me----------
 E:-------------------------------------------------------|
 B:-------------------------------------------------------|
 G:-------------------------------------------------------|
 D:------9/10-9--------9---10----9------------------------|
 A:------7/8--7--------7----8----7------6--7--6-----------|
 E:0-0---------------0-----------------------------8----0-|
 To the crypt-----------------
 E:-----------------------------------------------|
 B:-----------------------------------------------|
 G:-----------------------------------------------|
 D:------9-10--9----10-12------12--10--12--10-----|
 A:------7--8--7----8--10------10--8---10--8------|
 E:0-0------------0-----------------------------0-|

Abigail. you ought to be re-born when you died
 
 E:-------------------------------------------------------|
 B:-------------------------------------------------------|
 G:-------------------------------------------------------|
 D:------9/10-9--------9---10----9------------------------|
 A:------7/8--7--------7----8----7------6--7--6-----------|
 E:0-0---------------0-----------------------------8----0-|
 Abigail, Oh------------
 E:-----------------------------------------------|
 B:-----------------------------------------------|
 G:-----------------------------------------------|
 D:------9-10--9----10-12------12--10--12--10-----|
 A:------7--8--7----8--10------10--8---10--8------|
 E:0-0------------0-----------------------------0-|
 Johnathan-------------
 E:----------------------------------------------------|
 B:----------------------------------------------------|
 G:----------------------------------------------------|
 D:------9/10-9--------9---10----9---------------------|
 A:------7/8--7--------7----8----7---6--7--6-----------|
 E:0-0---------------0--------------------------8----0-|

I agree----- yes I do
 
 E:-----------------------------------------------|
 B:-----------------------------------------------|
 G:-----------------------------------------------|
 D:------9-10--9----10-12------12--10--12--10-----|
 A:------7--8--7----8--10------10--8---10--8------|
 E:0-0------------0-----------------------------0-|

Verse2 I am alive
 
 E:-----------------------------------------------|
 B:-----------------------------------------------|
 G:4-------------------4--------------------------|
 D:4-------------------4------4--4--4--4--4--6--6-|
 A:2---2--2--3--2--3---2---2--2--2--2--2--2--4--4-|
 E:-----------------------------------------------|

in--side your wife
 
 E:------------------------------|-------------------------|
 B:-8----8-----------------------|---------------------4---|
 G:-8----8-----------9\----6-----|------6--------------4---|
 D:-6----6-----------9\----6-----|------6------6--5----4---|
 A:-4----4---4-/-7---7\----4-----|------4---0--4--3----2---|
 E:------------------------------|-------------------------|
 Mir-i-am's dead------------
 E:-----------------------------------------------|
 B:-----------------------------------------------|
 G:4-------------------4--------------------------|
 D:4-------------------4------4--4--4--4--4--6--6-|
 A:2---2--2--3--2--3---2---2--2--2--2--2--2--4--4-|
 E:-----------------------------------------------|

I am her head
 
 E:------------------------------|-------------------------|
 B:-8----8-----------------------|-------------------------|
 G:-8----8-----------9\----6-----|------6------------------|
 D:-6----6-----------9\----6-----|------6------6-----7----6|
 A:-4----4---4-/-7---7\----4-----|------4---0--4-----5----8|
 E:------------------------------|-------------------------|

Soon I'll be
 
 E:-----------------|
 B:6----------------|
 G:6----------------|
 D:6------6---7---8-|
 A:4---0--4---5---6-|
 E:-----------------|
 Free-----------------------------------------
 E:--------------------------|----------------------|
 B:--------------------------|----------------------|
 G:--------------------------|----------------------|
 D:-------6-7-6--------------|------6-7-6-----------|
 A:---7-8-------8-7--5--7--8-|--7-8-------8-7--5--7-|
 E:0-------------------------|0---------------------|
 E:--------------------------|----------------------|
 B:--------------------------|----------------------|
 G:--------------------------|----------------------|
 D:-------6-7-6--------------|----------------------|
 A:---7-8-------8-7--5--7--8-|0---3---8---7---5---3-|
 E:0-------------------------|----------------------|
 E:--------------------------|----------------------|
 B:--------------------------|----------------------|
 G:--------------------------|----------------------|
 D:-------6-7-6--------------|------6-7-6-----------|
 A:---7-8-------8-7--5--7--8-|--7-8-------8-7--5--7-|
 E:0-------------------------|0---------------------|
 E:--------------------------|----------------------|
 B:--------------------------|----------------------|
 G:--------------------------|----------------------|
 D:-------6-7-6--------------|----------------------|
 A:---7-8-------8-7--5--7--8-|0---3---8---7---5---3-|
 E:0-------------------------|----------------------|

etc
If anyone has solos to any King Diamond or Mercyful Fate songs please drop me
a line at pige@deakin.edu.au, I would appreciate any small transcriptions that
people have done, it would be a great help as I'm trying to transcribe as many
as I can. Even if you don't have any transcriptions to hear from any
King Diamond/Mercyful Fate fans would be cool.
pige@deakin.edu.au

Important: The song above is NOT stored on the Chordie server. The original song is hosted at www.xguitar.com. Chordie works as a search engine and provides on-the-fly formatting. Chordie does not index songs against artists'/composers' will. To remove this song please click here.

Text color:
Chord color:
Chord grids: 
Font size:    
Page size: 

B
Rate #2 of 3 versions

Jango Player

Login - add to songbook

SHARE PAGE  




You need to log in to post comments