Guitar Tabs, Chords and Lyrics


Storm    King Diamond



King Diamond: The Storm
Album: Abigail II
Tabbed By Staplecake
Please send corrections/praise/money to staplecake@hotmail.com
(I have totally messed up this tab.. will correct it ASAP)

Intro

Guitar 1
E:-------------------------------|----------------------|------------|
B:-------------------------------|----------------------|------------|
G:------------------2------------|----------------------|--9---10----|
D:---5----4----5---------5---4---|---5----4----2----4---|--9---10----|
A:-------------------------------|----------------------|--7---8-----|
E:-----22---22---22---22---2---2-|-----22---22---22---22|------------|
       ..   ..   ..   ..   .   .       ..   ..   ..   ..
Guitar 2
E:-------------------------------|----------------------|------------|
B:-------------------------------|----------------------|------------|
G:----11\\-----------------------|--11\\----------------|------------|
D:----11\\-----------------------|--11\\----------------|--2---3-----|
A:----9\\------------------------|--9\\-----------------|--2---3-----|
E:-------------------------------|----------------------|--0---1-----|
Guitar 1
E:----------------------------------|------------------|
B:----------------------------------|------------------|
G:-------------------2--------------|--9-------7-------|
D:----5----4----5---------5---4-----|--9-------7-------|
A:----------------------------------|--7-------5-------|
E:------22----22---22--22---2---2---|------------------|
        ..    ..   ..  ..   .   .
Guitar 2
E:----------------------------------|------------------|
B:----------------------------------|------------------|
G:----11\\--------------------------|--9-------7-------|
D:----11\\--------------------------|--9-------7-------|
A:----9\\---------------------------|--7-------5-------|
E:----------------------------------|------------------|


Main Riff

Guitar 1
E:-------------------------------|----------------------|------------|
B:-------------------------------|----------------------|------------|
G:------------------2------------|----------------------|--9---10----|
D:---5----4----5---------5---4---|---5----4----2----4---|--9---10----|
A:-------------------------------|----------------------|--7---8-----|
E:-----22---22---22---22---2---2-|-----22---22---22---22|------------|
       ..   ..   ..   ..   .   .       ..   ..   ..   ..   .   .
Guitar 2
E:-------------------------------|----------------------|------------|
B:-------------------------------|----------------------|------------|
G:-------------------------------|----------------------|------------|
D:--4-44444444444444444444444444-|-44444444444444444444-|--2---3-----|
A:--4-44444444444444444444444444-|-44444444444444444444-|--2---3-----|
E:--2-22222222222222222222222222-|-22222222222222222222-|--0---1-----|
      ..........................   ....................

Riff 2

E:----------------------------------------------|
B:----------------------------------------------|
G:----6--6-6666--9--9--9998-8--8--8887-7--7--9--|
D:----6--6-6666--9--9--9998-8--8--8887-7--7--9--|
A:----4--4-4444--7--7--7776-6--6--6665-5--5--7--|
E:----------------------------------------------|
           ....        ....       ....
[Solo]

[Main Riff]

Lead thing  (This is just the basic melody, No harmony)
Im pretty sure this is wrong

     Em-Emsus2-Em    1) D5             2) D5
E:-------------------|-----------------|---------------|
B:----8p7-8-10-8-7--:|--8p7----7-8~----|--7~7~7~~~~----|
G:-------------------|------9~---------|---------------|
D:-------------------|-----------------|---------------|
A:------------------:|-----------------|---------------|
E:-------------------|-----------------|---------------|

Riff 3

                           1)            2)
E:-------------------------|-------------|---------------------|
B:------------------------:|-------------|---------------------|
G:-----11111111--11111111--|--11\\-11\\--|---------------------|
D:-----11111111--11111111--|--11\\-11\\--|---------------------| X2
A:-----9-9-9-9---9-9-9-9--:|--9\\--9\\---|--------7------------|
E:-------------------------|-------------|---9-10---10-9-7~~---|

                            1)                 2)
E:-------------------------|-----------------------|---------------------|
B:------------------------:|-----------------------|---------------------|
G:-----11111111--11111111--|--11/12-12121212--1111-|---------------------|
D:-----11111111--11111111--|--11/12-12121212--1111-|---------------------| X2
A:-----9-9-9-9---9-9-9-9--:|--9//10-10101010--9-9--|--------7------------|
E:-------------------------|-----------------------|---9-10---10-9-7~~---|

[Solo]


Intro
Main Riff
Riff2
Solo
Main Riff
Lead Thing
Riff3
Solo
Lead Thing
Main Riff
Riff2 [Solo}
Lead Thing
Riff 3
Lead Thing


Important: The song above is NOT stored on the Chordie server. The original song is hosted at www.xguitar.com. Chordie works as a search engine and provides on-the-fly formatting. Chordie does not index songs against artists'/composers' will. To remove this song please click here.

This song is displayed as text-only. Transposing and tuning is only available for chordpro-songs.

Login - add to songbook

Rating click stars to rate

Layout
Accuracy

SHARE PAGE  




You need to log in to post comments