Guitar Tabs, Chords and Lyrics


Dressed In White    King Diamond



Artist: King Diamond
Song: Dressed in White

Legend- PM- Palm mute
...- continue palm mutting
Riff:A (3 times)

|------------------------------------------------------------|
|------------------------------------------------------------|
|------------------------------------------------------------|
|------------------------------------------------------------|
|-8------------4------------6------------8-------6-----------|
|-6666666666---2222222222---4444444444---666666--4-----------|
   PM.......    .........    .........    .....
Riff:B (2 times)

|--------------------------------------------------------------------|
|--------------------------------------------------------------------|
|--------------------------------------------------------------------|
|--------------------------------------------------------------------|
|--------------------------------------------------------------------|
|66666622222224444444666666666222222224444444666666-------------------|
PM.................................................
Riff:A (3 times)

|---------------------------------------------------|
|---------------------------------------------------|
|---------------------------------------------------|
|---------------------------------------------------|
|-8------------4------------6------------8-------6--|
|-6666666666---2222222222---4444444444---666666--4--|
  PM........    .........    .........    .....
Riff:B (4 times)

|--------------------------------------------------------------------|
|--------------------------------------------------------------------|
|--------------------------------------------------------------------|
|--------------------------------------------------------------------|
|--------------------------------------------------------------------|
|66666622222224444444666666666222222224444444666666------------------|
PM.................................................
Chorus

|--------------------------------|
|--------------------------------|
|--------------------------------|
|--4------------2--------4-------|
|--2------------0--------2-------|
|--------------------------------|
She carries a secret.....

After chorus Riff:B

SOLO: DENNER

Chorus..

|--------------------------------|
|--------------------------------|
|--------------------------------|
|--4------------2--------4-------|
|--2------------0--------2-------|
|--------------------------------|
She carries a secret

SOLO: ANDY - DENNER

( ->Play Riff:B behind 

Important: The song above is NOT stored on the Chordie server. The original song is hosted at www.xguitar.com. Chordie works as a search engine and provides on-the-fly formatting. Chordie does not index songs against artists'/composers' will. To remove this song please click here.

This song is displayed as text-only. Transposing and tuning is only available for chordpro-songs.

Login - add to songbook

Rating click stars to rate

Layout
Accuracy

SHARE PAGE  




You need to log in to post comments