eToCache5 = ""; ?> Tea by King Diamond - guitar chords, guitar tabs and lyrics - chordie
e|--------------------------------|

B|--------------------------------|
G|---------5/7\5----------------0-|
D|---------3/5\3--------------0---|
A|-3--2-----------3--2------2-----|
E|-1--0-----------1--0----3-------|
e|--------------------------|
B|--------------------------|
G|---------5/7\5------------|
D|---------3/5\3----------7-|
A|-3--2-----------3--2----5-|
E|-1--0-----------1--0----5-|
e|------------------------------------|
B|------------------------------------|
G|-----------0-----0-----0--2-0h2p0---|
D|---------2-----0-----0------------3-|
A|---0-2-3-----2-----1----------------|
E|-3----------------------------------|
e|-------------------------|
B|-------------------------|
G|-----0-----0-------0-----|
D|---2-----0-------0-------|
A|-3-----2-------2-------2-|
E|-------------3-------2-0-|
e|----------------------------|
B|----------------------------|
G|----------------------------|
D|----------[silent]----------|
A|----------------------------|
E|----------------------------|
e|-------------------------|
B|-------------------------|
G|-------------------------|
D|-------------5-------7-9-|
A|-------------------------|
E|-------------------------|
e|------------------------------------|
B|------------------------------------|
G|---------0-----0-----0--------------|
D|-----------0-----0-----0------------|
A|------------------------------------|
E|------------------------------------|
e|-------------------------|
B|-------------------------|
G|---0-----0---------------|
D|-----0-----0-------------|
A|-------------------------|
E|-------------------------|
e|---------------------------------------|
B|---------------------------------------|
G|---------------------------------------|
D|-------3-------3-------3------7/8-7--8-|
A|---0-2-3-------3-------3------5/6-5--6-|
E|-3--------0-0-----0-0-----0-0----------|
e|-----------------------------|
B|-----------------------------|
G|-----------------------------|
D|-3-------2----------3------8-|
A|-3-------2----------3------6-|
E|----0-0----0-0-0-0----0-0----|
e|---------------------------------|
B|---------------------------------|
G|---------------------------------|
D|-3-------3-------3------7/8-7--8-|
A|-3-------3-------3------5/6-5--6-|
E|----0-0-----0-0-----0-0----------|
e|-----------------------------------|
B|-----------------------------------|
G|-----------------------------------|
D|-3-----------2-----------3-------8-|
A|-3-----------2-----------3-------6-|
E|----0-0-0-0-----0-0-0-0-----0-0----|
e|---------------------------------|
B|---------------------------------|
G|---------------------------------|
D|-3-------3-------3------7-8-7--8-|
A|-3-------3-------3------5-6-5--6-|
E|----0-0-----0-0-----0-0----------|
e|-----------------------------------|
B|-----------------------------------|
G|-----------------------------------|
D|-3-----------2-----------3-------8-|
A|-3-----------2-----------3-------6-|
E|----0-0-0-0-----0-0-0-0-----0-0----|
e|-----------------------------------|
B|-----------------------------------|
G|-9-----------4-----------5-------8-|
D|-----------------------------------|
A|-7-----------2-----------3-------6-|
E|-----------------------------------|
e|------------------------------------|
B|------------------------------------|
G|------------------------------------|
D|---9-------------------9---------10-|
A|---7-7---7---7h8p7p0---7-7---7----8-|
E|-0-----0---0---------0-----0---0----|
e|-------------------------------|
B|-------------------------------|
G|-------------------------------|
D|---9-------------------9-----7-|
A|---7-7---7---7h8p7p0---7-7---5-|
E|-0-----0---0---------0-----0---|
e|-------------------------------------|
B|-------------------------------------|
G|-------------------------------------|
D|---6-6----6---6h7p6p0---6-6---6------|
A|-----------------------------------9-|
E|-4-----4----4---------4-----4---4--7-|
e|---------------------------------|
B|---------------------------------|
G|---------------------------------|
D|---6-6----6---6h7p6p0---6-6------|
A|-------------------------------4-|
E|-4-----4----4---------4-----4--2-|
e|---------------------------------------------------|
B|---------------------------------------------------|
G|---------------------------------------------------|
D|-5-5-5-4----5-5-4-5-4-4-4-5-5-5-4--------0-----0---|
A|-3-3-3-2----3-3-2-3-2-2-2-3-3-3-2------2-----0-----|
E|-------------------------------------3-----2-----0-|
e|----------------------------------------------|
B|----------------------------------------------|
G|----------------------------------------------|
D|-5-5-5-4----5-5-4-5-4-4-4-5-5-5-4--------0--3-|
A|-3-3-3-2----3-3-2-3-2-2-2-3-3-3-2------2----1-|
E|-------------------------------------3------1-|

 CBBbACBCEm

E|-------------|-----------------10-8-7--------|-----------------------
B|-------8~----|---8-----8-----8--------10-8~--|-----------------------
G|-9~-7~----6~-|-9---9-7---7-7-----------------|-----------------------
D|-------------|-------------------------------|-----------------------
A|-------------|-------------------------------|-----------------------
E|-------------|-------------------------------|-----------------------


 CEm/BBbAC

E|-15p12----------12-19p15----------15-19-17-15-----------------|----12-
B|-------13----13----------17----17-------------19-17-15--------|-13----
G|----------12----------------16-------------------------16~----|-------
D|--------------------------------------------------------------|-------
A|--------------------------------------------------------------|-------
E|--------------------------------------------------------------|-------

C maj arp E min arp

 BCEmC

E|-------12--------------12-14-15-14-12-14-15~--|----19p15-------14p17-
B|-13-12----12--12-13-15------------------------|----------17----------
G|----------------------------------------------|-------------16-------
D|----------------------------------------------|----------------------
A|----------------------------------------------|----------------------
E|----------------------------------------------|----------------------

Em sw D maj sw

 Em/B
                                       (Blurr picking - no control ...)

E|-14-------12p15-12-------10p14-10-----------------12-----------------
B|----15-------------13-------------12-----12-13-15--------------------
G|-------14-------------12-------------11------------------------------
D|-----------------------------------------------------9-12-10-9-12-10-
A|---------------------------------------------------------------------
E|---------------------------------------------------------------------

C maj sw Bmin sw (This part is pretty blurry & sloppy...)

 ACEm/B

E|----------------------------15b17-----15\-|--------------------------
B|------------------------------------------|-8p0-5-0----------5p0-1-0-
G|-------------------9-10-12----------------|---------%--%--%----------
D|-9----------------------------------------|--------------------------
A|---12-10-9-12-10-9------------------------|--------------------------
E|------------------------------------------|--------------------------


 BbEm

E--------------------------12p7-------||---------
B------------------5p0-5-0------8----*||---------
G-%--%--%--4p0-4-0----------------9~--||---------
D-------------------------------------||---------
A------------------------------------*||---------
E-------------------------------------||---------

Em sw Back to Grandma ...

End Solo

Play Riff 3 "Hearing 'Their' stories..."
Play Riff 3a "My mother ? ..."
Play Riff 2 "Oh, it is time for tea..."

Ending
e|----------------------|
B|----------------------|
G|--8------10-----10/12-|
D|----------------------|
A|--6-------8------8/10-|
E|----------------------|


notation:
^ = bend ( ^ = half, ^^ = whole, etc. )
^r = bend and release
x = mute with fret-hand
* = mute with palm-hand
X\\ = pick slide
h = hammer-on
p = pull-off
~ = vibrato
t = tap-on
/ = slide up
\ = slide down
h. = harmonics
ah = artificial harmonic
(9) = ghost note
tm = trem picking
tr = trill


A B Bb C Em Em/B
variations - click chord images
Transpose chords:
Tuning:
Cool service:
View: Size:
A  A  A
Rating:
Layout:
  • Currently 3.1/5 Stars.
  • 1
  • 2
  • 3
  • 4
  • 5
 
Accuracy:
  • Currently 3.1/5 Stars.
  • 1
  • 2
  • 3
  • 4
  • 5
 
click stars to rate
Chordie recommends:
Learn to play guitar with video-based, online guitar lessons at JamPlay.com
Songbook:
Login to add this song to your songbook
Support the artist
Preview/buy this song
MSN Music
Why this non-profit ad?

 
login to add comments/video/corrections