Guitar Tabs, Chords and Lyrics


Welcome Home    King Diamond



King Diamond:  Welcome Home - "Them"

Tuning: Standard

E|-----------------------------------------|
B|-----------------------------------------|
G|-----------------------------------------|
D|-----------------------------------------|
A|-----------7h8p7/5h7---------------------|
E|-5-5-5-5-5--------------5-5-5-5-5--8-7-3-|

E|-------------------------------------|
B|-------------------------------------|
G|-------------------------------------|
D|-------------------------------------|
A|-----------7h8p7/5h7-----------3---3-|
E|-5-5-5-5-5--------------3-3-3----3---|

Verse 1
E|------------------------------------------|
B|------------------------------------------|
G|------------------------------------------|
D|------------------------------------------|
A|-----------9h10p9/7h9---------------------|
E|-7-7-7-7-7--------------7-7-7-7-7--10-9-5-|

E|------------------------------------|
B|------------------------------------|
G|------------------------------------|
D|------------------------------------|
A|-----------9h10p9/79----------5---5-|
E|-7-7-7-7-7-------------5-5-5----5---|

E|-------------|
B|-------------|
G|-------------|
D|-------------|
A|---4---4-----|
E|-2---2---3---|
          A.H.

Chorus
E|-------------------------------------------------|
B|-------------------------------------------------|
G|-------------------------------------------------|
D|--------------------7------------------5---6---6-|
A|-4-4-4-4-2----4-4-4-5---4-4-4-4-2----3---3---4---|
E|-2-2-2-2-0----2-2-2-----2-2-2-2-0----------------|

E|-----------------------------------------------------------|
B|-----------------------------------------------------------|
G|-----------------------------------------------------------|
D|--------------------7----------------5---6---6---7---8---8-|
A|-4-4-4-4-2----4-4-4-5---4-4-4-2----3---3---4---5---5---6---|
E|-2-2-2-2-0----2-2-2-----2-2-2-0----------------------------|

PLay Verse 1

E|-------------|
B|-------------|
G|-------------|
D|-------------|
A|---4---4-----|
E|-2---2---3---|
          A.H.

Chorus

Solo
Riff 1
E|------------------------------------------------------|
B|------------------------------------------------------|
G|------------------------------------------------------|
D|------------9---5---4----------------9--------------5-|
A|------------7-----7---5--------------7---0-2-3--5-2---|
E|-0--0-0-0-0-0-------------0--0-0-0-0-0----------------|

E|----------------------------------------------------|
B|----------------------------------------------------|
G|----------------------------------------------------|
D|------------9------------------------9----5---7-----|
A|------------7---------5--------------7----3---5-----|
E|-0--0-0-0-0-0---3-0-2-------0--0-0-0-0-0------------|

E|------------------------------------------------------|
B|------------------------------------------------------|
G|------------------------------------------------------|
D|------------9---5---4----------------9--------------5-|
A|------------7-----7---5--------------7---0-2-3--5-2---|
E|-0--0-0-0-0-0-------------0--0-0-0-0-0----------------|

E|----------------------------------------------------|
B|----------------------------------------------------|
G|----------------------------------------------------|
D|------------9------------------------9--------7-----|
A|------------7---------5--------------7----5---5-----|
E|-0--0-0-0-0-0---3-0-2-----0--0-0-0-0-0----3---------|

Play Verse

Play Chorus

Play Riff 1

E|-----------------------------------------------|
B|-----------------------------------------------|
G|-----------------------------------------------|
D|------------9----------------9---------------7-|
A|------------7----------------7---------------5-|
E|-0--0-0-0-0-0-----0--0-0-0-0-0----0--0-0-0-0---|
	    "Missy and Mother...

E|-------------------|
B|-------------------|
G|-------------------|
D|-2--------5-----7--|
A|-2--------3-----5--|
E|-0-----------------|
  ...meet You"

E|-----------------------------------------------|
B|-----------------------------------------------|
G|-----------------------------------------------|
D|------------9----------------9---------------7-|
A|------------7----------------7---------------5-|
E|-0--0-0-0-0-0-----0--0-0-0-0-0----0--0-0-0-0---|
	    "How strange...

E|---------------------|
B|---------------------|
G|---------------------|
D|-2------12---11------|
A|-2------10----9------|
E|-0-------------------|
	...all right?"

E|------------------------------|
B|------------------------------|
G|------------------------------|
D|-------4p2-4p2--------5p2-5p2-|
A|-2-2-2----------2-2-2---------|
E|------------------------------|

E|--------------------------------|
B|--------------------------------|
G|--------------------------------|
D|-------4p2-4p2------------------|
A|-2-2-2----------5p4-5p4-5p4-5p4-|
E|--------------------------------|

Solo
E|-----------------------------------------------------------------|
B|-----------------------------------------------------------------|
G|-----------------------------------------------------------------|
D|-----------------------------------------------------------------|
A|-----------------------------------------------------------------|
E|-4-4-4-4-4-4-4-4-4-4-4-4-4-4-4-4-4-4-4-4-4-4-4-4-4-4-4-4-4-4-4-4-|

E|-----------------------------------------------------------------|
B|-----------------------------------------------------------------|
G|-----------------------------------------------------------------|
D|-----------------------------------------------------------------|
A|-----------------------------------------------------------------|
E|-0-0-0-0-0-0-0-0-0-0-0-0-0-0-0-0-0-0-0-0-0-0-0-0-0-0-0-0-0-0-0-0-|

E|-----------------------------------------------------------------|
B|-----------------------------------------------------------------|
G|-----------------------------------------------------------------|
D|-----------------------------------------------------------------|
A|-----------------------------------------------------------------|
E|-4-4-4-4-4-4-4-4-4-4-4-4-4-4-4-4-4-4-4-4-4-4-4-4-4-4-4-4-4-4-4-4-|

E|-----------------------------------------------------------------|
B|-----------------------------------------------------------------|
G|-----------------------------------------------------------------|
D|-----------------------------------------------------------------|
A|-----------------------------------------------------------------|
E|-2-2-2-2-2-2-2-2-2-2-2-2-2-2-2-2-2-2-2-2-2-2-2-2-2-2-2-2-2-2-2-2-|

E|-------------------------------------------------|
B|-------------------------------------------------|
G|-------------------------------------------------|
D|-4-4---------4-4---------4-4---------4-4---------|
A|-2-2---------2-2---------2-2---------2-2---------|
E|-----0-0-0-0-----0-0-0-0-----0-0-0-0-----0-0-0-0-|

E|-------------------------------------------------|
B|-------------------------------------------------|
G|-------------------------------------------------|
D|-------------------------------------------------|
A|-5-5---------5-5---------5-5---------5-5---------|
E|-3-3-3-3-3-3-3-3-3-3-3-3-3-3-3-3-3-3-3-3-3-3-3-3-|

E|-------------------------------------------------|
B|-------------------------------------------------|
G|-------------------------------------------------|
D|-4-4---------4-4---------4-4---------4-4---------|
A|-2-2---------2-2---------2-2---------2-2---------|
E|-----0-0-0-0-----0-0-0-0-----0-0-0-0-----0-0-0-0-|

E|-----------------------------------------------------------------|
B|-----------------------------------------------------------------|
G|-----------------------------------------------------------------|
D|-----------------------------------------------------------------|
A|-----------------------------------------------------------------|
E|-1-1-1-1-1-1-1-1-1-1-1-1-1-1-1-1-1-1-1-1-1-1-1-1-1-1-1-1-1-1-1-1-|

E|-----------------------------------------------------------------|
B|-----------------------------------------------------------------|
G|-----------------------------------------------------------------|
D|-----------------------------------------------------------------|
A|-----------------------------------------------------------------|
E|-4-4-4-4-4-4-4-4-4-4-4-4-4-4-4-4-4-4-4-4-4-4-4-4-4-4-4-4-4-4-4-4-|

E|-----------------------------------------------------------------|
B|-----------------------------------------------------------------|
G|-----------------------------------------------------------------|
D|-----------------------------------------------------------------|
A|-----------------------------------------------------------------|
E|-1-1-1-1-1-1-1-1-1-1-1-1-1-1-1-1-1-1-1-1-1-1-1-1-1-1-1-1-1-1-1-1-|

E|---------------------------------------------|
B|---------------------------------------------|
G|-4----------4----------4----------4----------|
D|-4----------4----------4----------4----------|
A|-2--2-2-2-2-2--2-2-2-2-2--2-2-2-2-2--2-2-2-2-|
E|---------------------------------------------|
  Grandma' what was it like...

E|------------------------------------------|
B|------------------------------------------|
G|-6----------6----------6----------6--6--6-|
D|-6----------6----------6----------6--6--6-|
A|-4--4-4-4-4-4--4-4-4-4-4--4-4-4-4-4--4--4-|
E|------------------------------------------|
  To be on that holiday site...

E|------------------------------------------|
B|------------------------------------------|
G|-8----------8----------8----------8--8--8-|
D|-8----------8----------8----------8--8--8-|
A|-6--6-6-6-6-6--6-6-6-6-6--6-6-6-6-6--6--6-|
E|------------------------------------------|

E|------------------------------------------|
B|------------------------------------------|
G|-8----------8----------8----------8--8--8-|
D|-8----------8----------8----------8--8--8-|
A|-6--6-6-6-6-6--6-6-6-6-6--6-6-6-6-6--6--6-|
E|------------------------------------------|

E|-----------------------------------|
B|-----------------------------------|
G|-----------------------------------|
D|-----------------------------------|
A|---------7h8p7p0--7h8p7p0--7h8p7p0-|
E|-0-0-0-0---------------------------|

E|---------------------------------------------------|
B|---------------------------------------------------|
G|---------------------------------------------------|
D|-------------------2h3p2p0-2h3p2p0-2h3p2p0-2h3p2p0-|
A|---------7h8p7p0-----------------------------------|
E|-0-0-0-0-------------------------------------------|

E|----------------------------------------------------|
B|----------------------------------------------------|
G|----------------------------------------------------|
D|----------------------------------------------------|
A|---------7h8p7p0--7h8p7p0--7h8p7p0----------7h8p7p0-|
E|-0-0-0-0----------------------------0-0-0-0---------|

                                   x2
E|---------------------------------|-----|
B|---------------------------------|-----|
G|-2h3p2p0-2h3p2p0-----------------|-----|
D|-----------------2h3p2p0-2h3p2p0-|-----|
A|---------------------------------|--5--|
E|---------------------------------|--3--|
  Never mind you dirty...

E|------------------------------|
B|------------------------------|
G|------------------------------|
D|-------4p2-4p2--------5p2-5p2-|
A|-2-2-2----------2-2-2---------|
E|------------------------------|

E|--------------------------------|
B|--------------------------------|
G|--------------------------------|
D|-------4p2-4p2------------------|
A|-2-2-2----------5p4-5p4-5p4-5p4-|
E|--------------------------------|

E|--------------------------------------------------------------|
B|--------------------------------------------------------------|
G|--------------------------------------------------------------|
D|--------------------------------------------------------------|
A|-----------------6-6-6-6-6-6-6-6-5-5-5-5-5-5-5-5--------------|
E|-4-4-4-4-4-4-4-4----------------------------------4-5-7-4-5-7-|
  Let us go inside...

E|--------------------------------------------------------------|
B|--------------------------------------------------------------|
G|--------------------------------------------------------------|
D|--------------------------------------------------------------|
A|-----------------6-6-6-6-6-6-6-6-5-5-5-5-5-5-5-5--------------|
E|-4-4-4-4-4-4-4-4----------------------------------4-5-7-4-5-7-|

E|--------------------------------------------------------------|
B|--------------------------------------------------------------|
G|--------------------------------------------------------------|
D|--------------------------------------------------------------|
A|-----------------3-3-3-3-3-3-3-3-2-2-2-2-2-2-2-2--------------|
E|-1-1-1-1-1-1-1-1----------------------------------1-2-4-1-2-4-|

E|--------------------------------------------------------------|
B|--------------------------------------------------------------|
G|--------------------------------------------------------------|
D|--------------------------------------------------------------|
A|-----------------5-5-5-5-5-5-5-5-4-4-4-4-4-4-4-4--------------|
E|-3-3-3-3-3-3-3-3----------------------------------3-4-6-3-4-6-|

E|-----------------------------------|
B|-----------------------------------|
G|-----------------------------------|
D|-----------------------------------|
A|---------7h8p7p0--7h8p7p0--7h8p7p0-|
E|-0-0-0-0---------------------------|

E|---------------------------------------------------|
B|---------------------------------------------------|
G|---------------------------------------------------|
D|-------------------2h3p2p0-2h3p2p0-2h3p2p0-2h3p2p0-|
A|---------7h8p7p0-----------------------------------|
E|-0-0-0-0-------------------------------------------|

E|----------------------------------------------------|
B|----------------------------------------------------|
G|----------------------------------------------------|
D|----------------------------------------------------|
A|---------7h8p7p0--7h8p7p0--7h8p7p0----------7h8p7p0-|
E|-0-0-0-0----------------------------0-0-0-0---------|

                                   x3
E|---------------------------------|-----|
B|---------------------------------|-----|
G|-2h3p2p0-2h3p2p0-----------------|-----|
D|-----------------2h3p2p0-2h3p2p0-|--2--|
A|---------------------------------|--2--|
E|---------------------------------|--0--|

notation:
^   =  bend [ ^ = half, ^^ = whole, etc. ]
^r  =  bend and release
x   =  mute with fret-hand
*   =  mute with palm-hand
X\\ =  pick slide
h   =  hammer-on
p   =  pull-off
~   =  vibrato
t   =  tap-on
/   =  slide up
\   =  slide down
h.  =  harmonics
ah  =  artificial harmonic
(9) =  ghost note
tm  =  trem picking


Important: The song above is NOT stored on the Chordie server. The original song is hosted at www.xguitar.com. Chordie works as a search engine and provides on-the-fly formatting. Chordie does not index songs against artists'/composers' will. To remove this song please click here.

This song is displayed as text-only. Transposing and tuning is only available for chordpro-songs.

Login - add to songbook

Rating click stars to rate

Layout
Accuracy

SHARE PAGE  




You need to log in to post comments