Guitar Tabs, Chords and Lyrics


Salem   King Diamond

------



L[B5/F#]eft Ch[C5/G]annel[C#5/G#]    Rif[D5/A]f A  [F#5]            Riff B                [F5]
E|---|---|---|---|------------------|-------------------------|--------
B|---|---|---|---|------------------|-------------------------|--------
G|-4-|-5-|-6-|-7-|------------------|---------------------10--|--------
D|-4-|-5-|-6-|-7-|------------------|---------------------10--|--------
A|-2-|-3-|-4-|-5-|-4-4-4--4-4-4-4-4-|----------------------8--|--------
E|-2-|-3-|-4-|-5-|-2-2-2--2-2-2-2-2-|-0-0-0--0-0-0--0-0-0-----|-0-0-0--



                [F5]                    [F5] [D5] [F5] 
E|-----------------|------------------------|-------------------|-------
B|-----------------|------------------------|-------------------|-------
G|--------------10-|---------------------10-|-------7--------10-|-------
D|--------------10-|---------------------10-|-------7--------10-|-------
A|---------------8-|----------------------8-|-------5---------8-|-------
E|-0-0-0--0-0-0----|-0-0-0--0-0-0--0-0-0----|-0-0-0----0-0-0----|-0-0-0-



                 [F5]                   [F5] [F5] 
E|------------------|------------------------|------------------------|-
B|------------------|------------------------|------------------------|-
G|---------------10-|---------------------10-|---------------------10-|-
D|---------------10-|---------------------10-|---------------------10-|-
A|----------------8-|----------------------8-|----------------------8-|-
E|--0-0-0--0-0-0----|-0-0-0--0-0-0--0-0-0----|-0-0-0--0-0-0--0-0-0----|-



         [D5]   [E5]   [F5] Ri[G5]ff [F#5]C                        [D5]                        [D5]
E|--------------|---|---|-----------------------|-----------------------
B|--------------|---|---|-----------------------|-----------------------
G|-------7-9-10-|---|---|---------------------7-|---------------------7-
D|-------7-9-10-|-5-|-4-|---------------------7-|---------------------7-
A|-------5-7--8-|-5-|-4-|---------------------5-|---------------------5-
E|-0-0-0--------|-3-|-2-|-0-0-0--0-0-0--0-0-0---|-0-0-0--0-0-0--0-0-0---



    [G5]   [F#5]                              
E-|---|---|----------------------------|----------------------------|--
B-|---|---|----------------------------|----------------------------|--
G-|---|---|----------------------------|----------------------------|--
D-|-5-|-4-|----------------------------|----------------------------|--
A-|-5-|-4-|----------------------------|----------------------------|--
E-|-3-|-2-|-0-0-0--0-0-0--0-0-0--0-0-0-|-0-0-0--0-0-0--0-0-0--0-0-0-|--



Play Riff B1x,C1x   Ri[E5]ff D
E|------------------|---|----------------------------------------------
B|------------------|---|----------------------------------------------
G|------------------|---|-4--------4--------5--------5--------6--------
D|------------------|---|---5-4-5----5-4-5----5-4-5----5-4-5----5-4-5--
A|------------------|-2-|----------------------------------------------
E|------------------|-0-|----------------------------------------------



                         Play Riff D 4x     Ri[E5]ff E[E5]   [F#5]    [G5]   [E5]   [E5]    [G5]   [E5]
E|---------------------------|----------|-||----------------------------
B|---------------------------|----------|-||*---------------------------
G|-6--------5--------5-------|----------|-||----------------------------
D|---5-4-5----5-4-5----5-4-5-|----------|-||--2---2---4/5--2---2---5~-2-
A|---------------------------|----------|-||*-2---2---4/5--2---2---5~-2-
E|---------------------------|----------|-||----0---0--------0---0------



     [E5]   [F#5]    [G5]   [G5]   [A5]   [A5]   [A5]   [A5]   [G5]  Riff F
E|---------------------------||-|--------------------------------------
B|--------------------------*||-|--------------------------------------
G|---------------------------||-|--------------------------------------
D|---2---4/5--5/7--7-7--7\5--||-|--------------------------------------
E|-0---0---------------------||-|-2-2-2--2-2-2----2-------2-2-2--2-2-2-
E|---------------------------------------------------------------------
B|---------------------------------------------------------------------
G|---------------------------------------------------------------------
D|---------------------------------------------------------------------
E|----------------------------------------------------------------------
B|----------------------------------------------------------------------
G|----------------------------------------------------------------------
D|----------------------------------------------------------------------
E|-2----2------2-2-2--2-2-2----2----2-2-2--2-2-2----2------0-2-3--6-5-3-



Riff G

E|--------|-------------------------------------------------------------
B|--------|-------------------------------------------------------------
G|--------|-------------------------------------------------------------
D|--------|---------5--------------5----------5-----------------------5-
E|--6-5-3-|-------------------------------------------------------------



Riff H

E|------------------------------------------|--------------------------
B|------------------------------------------|--------------------------
G|------------------------------------------|--------------------------
D|--------------5----------5----------------|--------------------------
E|------------------------------------------|-0------------------------



Play Riff B1x,C1x,D4x,E2x,F1x,G1x,H4x,A1x,B1x,C1x

E|---------------|-----|-----------------------------------------------
B|---------------|-----|-----------------------------------------------
G|---------------|-----|-----------------------------------------------
D|---------------|-----|-----------------------------------------------
A|-0-0--3-3-3--2-|-----|-----------------------------------------------
E|---------------|-0-5~|-----------------------------------------------



Right Channel Riff A

E|--------------|------||-|--------|---|---|---|---|------------------|-
B|--------------|------||-|--------|---|---|---|---|------------------|-
G|--------------|------||-|--------|-4-|-5-|-6-|-7-|------------------|-
D|--------------|------||-|--------|-4-|-5-|-6-|-7-|------------------|-
A|--------------|-1~---||-|--------|-2-|-3-|-4-|-5-|-4-4-4--4-4-4-4-4-|-
E|--------------|------||-|--------|-2-|-3-|-4-|-5-|-2-2-2--2-2-2-2-2-|-



Riff B

E|------------------------|------------------------|-------------------
B|------------------------|------------------------|-------------------
G|---------------------10-|---------------------10-|-------------------
D|---------------------10-|---------------------10-|-------------------
A|----------------------8-|----------------------8-|-------------------
E|-0-0-0--0-0-0--0-0-0----|-0-0-0--0-0-0--0-0-0----|-0-0-0--0-0-0--0-0-
E|------|-------------------|------------------------|-----------------
B|------|-------------------|------------------------|-----------------
G|---10-|-------7--------10-|---------------------10-|-----------------
D|---10-|-------7--------10-|---------------------10-|-----------------
A|----8-|-------5---------8-|----------------------8-|-----------------
E|-0----|-0-0-0----0-0-0----|-0-0-0--0-0-0--0-0-0----|-0-0-0--0-0-0--0-



Riff C

E|--------|------------------------|---------------|---|---|------------
B|--------|------------------------|---------------|---|---|------------
G|-----10-|---------------------10-|--------7-9-10-|---|---|------------
D|-----10-|---------------------10-|--------7-9-10-|-5-|-4-|------------
A|------8-|----------------------8-|--------5-7--8-|-5-|-4-|------------
E|-0-0----|-0-0-0--0-0-0--0-0-0----|-0-0-0---------|-3-|-2-|-0-0-0--0-0-
E|------------|-----------------------|---|---|------------------------
B|------------|-----------------------|---|---|------------------------
G|----------7-|---------------------7-|---|---|------------------------
D|----------7-|---------------------7-|-5-|-4-|------------------------
A|----------5-|---------------------5-|-5-|-4-|------------------------
E|-0--0-0-0---|-0-0-0--0-0-0--0-0-0---|-3-|-2-|-0-0-0--0-0-0--0-0-0--0-



Play Riff B1x,C1x Riff D

E|-----|----------------------------|--------------------|---|---------
B|-----|----------------------------|--------------------|---|---------
G|-----|----------------------------|--------------------|---|---------
D|-----|----------------------------|--------------------|---|------5--
A|-----|----------------------------|--------------------|-2-|-2----3--
E|-0-0-|-0-0-0--0-0-0--0-0-0--0-0-0-|--------------------|-0-|-0-------
E|-------------|-------------------------------------------------------
B|-------------|-------------------------------------------------------
G|-------------|-------------------------------------------------------
D|---6-----5-5-|-------------------------------------------------------
A|---4-----3-3-|-2--------2--------3--------3--------4--------4--------
E|-------------|---3-2-3----3-2-3----3-2-3----3-2-3----3-2-3----3-2-3--
E|------------------|--------------------------------------------------
B|------------------|--------------------------------------------------
G|------------------|--------------------------------------------------
D|------------------|--------------------------------------------------
A|-3--------3-------|-2--------2--------3--------3--------4--------4---
E|---3-2-3----3-2-3-|---3-2-3----3-2-3----3-2-3----3-2-3----3-2-3----3-



Riff E

E|-----------------------|----------------------------------------------
B|-----------------------|----------------------------------------------
G|-----------------------|----------------------------------------------
D|-----------------------|-9---9---11/12--9---9---12~-9---9---11/12--12/
A|------3--------3-------|-7---7----9/10--7---7---10~-7---7----9/10--10/
E|-2-3----3-2-3----3-2-3-|---0---0----------0---0-------0---0-----------



Riff F

E|------------------|--------------------------------------------------
B|------------------|--------------------------------------------------
G|------------------|--------------------------------------------------
D|-14--14-14--14\12-|--------------------------------------------------
A|-12--12-12--12\10-|---------------4---3----------------4---5---------
E|------------------|-2-2-2--2-2-2----2----2-2-2--2-2-2----2----2-2-2--
E|---------------------------------------------------------------------
B|---------------------------------------------------------------------
G|---------------------------------------------------------------------
D|---------------------------------------------------------------------
A|--------4---3----------------------------------------4---3-----------
E|-2-2-2----2----0-2-3--6-5-3--6-5-3--0--2-2-2--2-2-2----2----2-2-2--2-



Riff G

E|--------------------------------------------------------|------------
B|--------------------------------------------------------|------------
G|--------------------------------------------------------|------------
D|--------------------------------------------------------|--------7-8-
E|-2-2----2----2-2-2--2-2-2----2------0-2-3--6-5-3--6-5-3-|------------
E|----------------------------------------------------------------------
B|----------------------------------------------------------------------
G|----------------------------------------------------------------------
D|-7----------7----8---------7-8-7----------7------------7-8-7----------
E|----------------------------------------------------------------------



Riff H

E|--------------------------------------|-------------------------------
B|--------------------------------------|-------------------------------
G|--------------------------------------|-------------------------------
D|-7----8---------7-8-7----------7------|-------------------------------
E|--------------------------------------|-0-----------------------------
E|-----------|-----------------------------------------|---------------
B|-----------|-----------------------------------------|---------------
G|-----------|-----------------------------------------|---------------
D|-----------|-----------------------------------------|---------------
A|--3-3-3--2-|----0-0-0--3-3-3--2-2-2--0-0-0--3-3-3--2-|----5-5-5--8-8-
E|-----------|-0---------------------------------------|-0-------------
E|---------------------------|-----------------------------------------
B|---------------------------|-----------------------------------------
G|---------------------------|-----------------------------------------
D|---------------------------|-----------3-3-3--0-0-0---------3-3-3--0-
A|-8--7-7-7--5-5-5--8-8-8--7-|----3-3-3----------------3-3-3-----------
E|---------------------------|-0---------------------------------------



Play Riff B1x,C1x,D1x,E2x,F1x,G1x,H1,A1x,B1x,C1x

E|-----|---------------------------------------------------------------
B|-----|---------------------------------------------------------------
G|-----|---------------------------------------------------------------
D|-----|---------------------------------------------------------------
A|---3~|---------------------------------------------------------------
E|-0---|---------------------------------------------------------------
E|----------|---||-
B|----------|---||-
G|----------|---||-
D|----------|---||-
A|----------|-2-||-
E|----------|-0-||-


Important: The song above is NOT stored on the Chordie server. The original song is hosted at www.xguitar.com. Chordie works as a search engine and provides on-the-fly formatting. Chordie does not index songs against artists'/composers' will. To remove this song please click here.

Text color:
Chord color:
Chord grids: 
Font size:    
Page size: 

A5 B5/F# C#5/G# C5/G D5 D5/A E5 F#5 F5 G5
variations - click chord images

Login - add to songbook

Transpose chords

Tuning

Rating click stars to rate

Layout
Accuracy

SHARE PAGE  




You need to log in to post comments