Guitar Tabs, Chords and Lyrics


You Really Got Me    Kinks



The Kinks - You Really Got Me
Tabbed By: 182_scarface
Email: blabidbad@jliksfs.com

Tuning: Standard (E A D G B E)




E|----------------------------------------------------------------||
B|----------------------------------------------------------------||
G|----------------------------------------------------------------||
D|-----------------22---2----22---2-------------------------------||
A|-3-55-3-5-x12----00---0----00---0-this riff 4 times-------------||
E|-1-33-1-3-----------3----3----3---------------------------------||


E|----------------------------------------------------------------||
B|----------------------------------------------------------------||
G|--------------22---2----22--2-----------------------------------||
D|at 'oh yeah'--00---0----00--0-this riff x5-then--5-let ring(tie) THEN YOU CAN REPEAT TILL END OF THE SONG
A|-----------------3-----3--3----------------------3--------------||
E|----------------------------------------------------------------||

the order may be slightly messed up but you can work that out this is the basic


Important: The song above is NOT stored on the Chordie server. The original song is hosted at www.xguitar.com. Chordie works as a search engine and provides on-the-fly formatting. Chordie does not index songs against artists'/composers' will. To remove this song please click here.

This song is displayed as text-only. Transposing and tuning is only available for chordpro-songs.

Login - add to songbook

Rating click stars to rate

Layout
Accuracy

SHARE PAGE  




You need to log in to post comments