Chordie logo


The Street Giveth And The Street Taketh Away   Kiss



THE STREET GIVETH AND THE STREET TAKETH AWAY (from the KISS CD "HOT IN THE SHADE")
--------------------

Transcribed by Emil Ortenmark, emil@kissasylum.com

Standard tuning

Key:
/    = slide up
\    = slide down
b    = bend (whole step)
b^   = bend (1/2 step)
b^^  = bend (1 1/2 steps)
pb   = pre-bend
r    = release-bend
t    = tap with righthand finger
h    = hammer-on
p    = pull-off
~    = Vibrato
*    = Natural Harmonic

**   = Artificial Harmonic
x    = Dead notes (no pitch)
P.M. = Palm mute (- -> underneath indicates which notes)
(\)  = Dive w\bar
(/)  = Release w\bar
Tp   = Tap w\plectrum



Rhythm Fig. 1 (clean)

E|--3------3----3--------------------------------|
B|--3------3----3--0--2--3p-2--0--2~---0---------|
G|--0------0----0--0--2--3p-2--0--2~---0---------|
D|--0------0----0--0--2--3p-2--0--2~---0---------|
A|-----------------------------------------------|
E|--3------3----3--------------------------------|



E|--1----1-----------0----0--0----0--0-----------|
B|--1----1------4----1----1--1----1--1-----------|
G|--2----2------3----0----0--0----0--0-----------|
D|--3----3------1----2----2--2----2--2-----------|
A|--3----3-----------3----3--3----3--3-----------|
E|--1----1---------------------------------------|



Rhythm Fig. 2

E|-------3---------------------------------------|
B|--3----3---------------------------------------|
G|--0----0--------0--2--3--2--0--2~---0----------|
D|--0----0--------0--2--3--2--0--2~---0----------|
A|-----------------------------------------------|
E|--3--------------------------------------------|



E|-----------------------------------------------|
B|-----------------------------------------------|
G|--10----10----x--8----5----5--5--5--5--5-------|
D|--10----10----x--8----5----5--5--5--5--5-------|
A|--8-----8-----x--6----3----3--3--3--3--3-------|
E|-----------------------------------------------|



Rhythm Fig. 3

E|-----------------------------------------------|
B|-----------------------------------------------|
G|--5----7--7----x--x--x--5----7--7--5--7--5-----|
D|--5----7--7----x--x--x--5----7--7--5--7--5-----|
A|--3----5--5----x--x--x--3----5--5--3--5--3-----|
E|-----------------------------------------------|



E|-----------------------------------------------|
B|-----------------------------------------------|
G|--5----7--7----x--x--x--5----7--7--5--7--------|
D|--5----7--7----x--x--x--5----7--7--5--7--8-----|
A|--3----5--5----x--x--x--3----5--5--3--5--8-----|
E|-----------------------------------------6-----|



E|-----------------------------------------------|
B|-----------------------------------------------|
G|--8------------------10------------------------|
D|--8------------------10------------------------|
A|--6------------------8-------------------------|
E|-----------------------------------------------|
   Ride chords



Rhythm Fig. 4

E|-----------------------------------------------|
B|-----------------------------------------------|
G|--2----2----2------------7--7--9--9\-----------|
D|--2----2----2------------7--7--9--9\-----------|
A|--0----0----0------------5--5--7--7\-----------|
E|---------------3~---0--------------------------|
   < - - - - - - - - - 2x - - - - - - - - >


E|-----------------------------------------------|
B|-----------------------------------------------|
G|--5-----------------7--------------------------|
D|--5------------5----7--------------------------|
A|--3------------5----5--------------------------|
E|---------------3-------------------------------|
   Ride chords


E|-----------------------------------------------|
B|-----------------------------------------------|
G|--2----2----2------------9-------9-------------|
D|--2----2----2------------9-------9-------------|
A|--0----0----0------------7-------7-------------|
E|---------------3~---0---------0----------------|
                               P.M.


Riff 1

E|-----------------------------------------------|
B|--11--11--10----10--11----11-10----------------|
G|--10--10--10----10--10----10-10----------------|
D|--12--12--10----10--12----12-10----------------|
A|-----------------------------------------------|
E|-----------------------------------------------|



Riff 2

E|-----------------------------------------------|
B|--11--11--10-----------------------------------|
G|--10--10--10-----------------------------------|
D|--12--12--10-----------------------------------|
A|-----------------------------------------------|
E|-----------------------------------------------|



Riff 3 (clean)

E|----3------3----3--3---------------------------|
B|----3------3----3--3---------------------------|
G|----0------0----0--0---------------------------|
D|----0------0----0--0---------------------------|
A|-----------------------------------------------|
E|----3------3----3--3---------------------------|



Riff 4

E|-----------------------------------------------|
B|-----------------------------------------------|
G|--3**b-----------------------------------------|
D|----------3**b-r3~--/5-------------------------|
A|-----------------------------------------------|
E|-----------------------------------------------|


Riff 5

E|-----------------------------------------------|
B|-----------------------------------------------|
G|-----------------------------------------------|
D|--3**b-r3--------------------------------------|
A|-----------1**-1**-----------------------------|
E|--------------------3~-------------------------|


Solo

E|-------------------------------------------------------------------|
B|-------------------------------------------------------------------|
G|-------------------------------------------------------------------|
D|-------------------------------------------------------------------|
A|--1--1~---------1--1-----------------------------------------------|
E|-----------3-1---------3~-----3---3---3---1---1/3--3---3---1--3~---|
   Harm - - - - - - - - - - - - - - - - - - - - - - - - - - - - - - -



E|-------------------------------------------------------------------|
B|-----------------------------------3-6----3-6----3-6----3h6p3------|
G|--3~---------3---5b--3--5--3--5b-------5b-----5b------5------------|
D|--------5------5---------------------------------------------------|
A|-------------------------------------------------------------------|
E|-------------------------------------------------------------------|
  - - - - - - - - - - - - - ->



E|-------------------------------------------------------------------|
B|----3h6p3---3h6p3--------------------------------------------------|
G|--5-------5-------5p3---3-5~--------------17b---r17-p15------------|
D|----------------------5---------------------------------17~--------|
A|-------------------------------------------------------------------|
E|-------------------------------------------------------------------|



E|-------------------------------------------------------------------|
B|-------------------------------------------------------------------|
G|------------------------------------------------------------15-----|
D|--15----------------------------------------15--15--17~--------17--|
A|-----17-13-15-13h15p13--------13-----------------------------------|
E|-----------------------15--13----15~-------------------------------|




E|---------------------------------------------15-------15-------15--|
B|---------------------18b--18b~------15h18p15----15h18----15h18-----|
G|--17b-15-17----15--------------------------------------------------|
D|------------17-----------------------------------------------------|
A|-------------------------------------------------------------------|
E|-------------------------------------------------------------------|
  < - - - 3x - - - >                              < - - - 6x - - - >



E|------15h18p15----15-----------------------------------------------|
B|--18b----------18----18-15h18p15----18p15----18p15-----18----------|
G|---------------------------------17-------17-------17--17b~--------|
D|-------------------------------------------------------------------|
A|-------------------------------------------------------------------|
E|-------------------------------------------------------------------|


Important: The song above is NOT stored on the Chordie server. The original song is hosted at www.xguitar.com. Chordie works as a search engine and provides on-the-fly formatting. Chordie does not index songs against artists/composers will. To remove this song please click here.

This song is displayed as text-only. Transposing and tuning is only available for chordpro-songs.

Login - add to songbook

Rating click stars to rate

Layout
Accuracy

SHARE PAGE  




You need to log in to post comments