Guitar Tabs, Chords and Lyrics


All Hell's Breakin' Loose   Kiss


--------------------------



E|----------------------------------------------------|



B|----------------------------------------------------|



G|----------------------------------------------------|



D|----------3----------5----------3-----5-------------|



A|----3-4-5---5-------------3-4-5---5-----5-8-7-------|



E|--3-----------6-6--6----3-----------6---------6-----|



E|----------------------------------------------------|



B|----------------------------------------------------|



G|------------------------------------3h^5------------|



D|----------3----------5----------3---3h^5------------|



A|----3-4-5---5-------------3-4-5---5------8-7--------|



E|--3-----------6-6--6----3--------------------6------|



E|--15-15-15-15---15----------------------------------|



B|--15-15-15-15---15----------------------------------|



G|--16-16-16-16---16----------------------------------|



D|--17-17-17-17---17----------------------------------|



A|----------------------------------------------------|



E|----------------------------------------------------|



E|--3-------------------------------------------------|



B|--3-------------------------------------------------|



G|--4-------------------------------------------------|



D|--5-------------------------------------------------|



A|--5-------------------------------------------------|



E|--3-------------------------------------------------|



E|----------------------------------------------------|



B|----------------------------------------------------|



G|--5--3--------5------------5--3--------5------------|



D|--5--3--------5--5---------5--3--------5--5---------|



A|--3--1--------3--5---------3--1--------3--5---------|



E|-----------------3------------------------3---------|



E|--------3-------------------------------------------|



B|--------3-----------10-----------5------------------|



G|--------4-----------10-----------5------------------|



D|--6--5--5-----6--5--10-----6--5--5-----7/8----------|



A|--6--5--5-----6--5--8------6--5--3-----7/8----------|



E|--4--3--3-----4--3---------4--3--------5/6----------|



E|--------3-------------------------------------------|



B|--------3-----------10-----------5-----------10-----|



G|--------4-----------10-----------5-----------10-----|



D|--6--5--5-----6--5--10-----6--5--5-----6--5--10-----|



A|--6--5--5-----6--5--8------6--5--3-----6--5--8------|



E|--4--3--3-----4--3---------4--3--------4--3---------|



E|----------------------------------------------------|



B|----------------------------------------------------|



G|----------------------------------------------------|



D|---5p^3p^2p^-3~------------3-5~---------------------|



A|-----------------5-4--3-5---------------------------|



E|-3--------------------------------------------------|



E|-----15-------------15-------15-15h^18p^15-----15---|



B|-18b----18b-18b-18b------18b---------------18b------|



G|----------------------------------------------------|



D|----------------------------------------------------|



A|----------------------------------------------------|



E|----------------------------------------------------|



           = Pick while bend



E|-------18b\18-15---------------------20~------------|



B|-18-15----------------------20-18----------20-18-17-|



G|-----------------17---------------19----------------|



D|--------------------17-15---------------------------|



A|----------------------------------------------------|



E|----------------------------------------------------|



E|----------------------------------------------------|



B|----------------------------------------------------|



G|-19-17-16-19-18-16h^17p^16--------------------------|



D|---------------------------15-14-12\11-11\10--------|



A|---------------------------------------------8-10---|



E|----------------------------------------------------|



E|----------------------------------------------------|



B|----------------------------------------------------|



G|-12h^13-12-10h^12h^13p^12---12h^13p^12p^10h^12------|



D|----------------------------------------------------|



A|----------------------------------------------------|



E|----------------------------------------------------|



E|----------------------------------------------------|



B|----------------------------------------------------|



G|-10p^8-10P^8-10p^8\7~---12h^13p^12p^10h^12----------|



D|----------------------------------------------------|



A|----------------------------------------------------|



E|----------------------------------------------------|



E|----------------------------------------------------|



B|---------------18p^16p^15p^-16---16p^15p^13----13---|



G|-10-12-13-12--------------------------------16------|



D|----------------------------------------------------|



A|----------------------------------------------------|



E|----------------------------------------------------|



E|-----15~~~------------------------------------------|



B|-18b------------------------------------------------|



G|----------------------------------------------------|



D|----------------------------------------------------|



A|----------------------------------------------------|



E|----------------------------------------------------|



Important: The song above is NOT stored on the Chordie server. The original song is hosted at www.xguitar.com. Chordie works as a search engine and provides on-the-fly formatting. Chordie does not index songs against artists'/composers' will. To remove this song please click here.

This song is displayed as text-only. Transposing and tuning is only available for chordpro-songs.

Login - add to songbook

Rating click stars to rate

Layout
Accuracy

SHARE PAGE  




You need to log in to post comments