Plaster Caster

Kiss

 AGAG
 Baby's getting anxious, the hour's getting late   
 FGD
 The night is almost over, she can't wait  
 AGAG
 Oh, things are complicating, my love is in her hands   
 FGDGD
 And there's no more waiting, she understands    
 GDGD
 The plaster's gettin' harder and my love is perfection   
 FGA
 A token of my love for her collection, her collection  
 DGDG
 Plaster caster, grab a hold of me faster  
 FCG
 And if you wanna see my love, just ask her  
 AG
 And my love is the plaster 
 AG
 And yeah, she's the collector 
 FGDGD
 She wants me all the time to inject her    
 GDGD
 The plaster's gettin' harder and my love is perfection   
 FGA
 A token of my love for her collection, her collection  
 DGDG
 Plaster caster, grab a hold of me faster  
 FCG
 And if you wanna see my love, just ask her  
(solo)
 GDGD
 The plaster's gettin' harder and my love is perfection   
 FGA
 A token of my love for her collection, her collection  
 DGDG
 Plaster caster, grab a hold of me faster  
 FCG
 And she calls me by the name of master, (master)  
jason (jedgeco@emory.edu)
===================================================================
Plaster Caster by KISS
From the album Love Gun
--------------------------------------------------------------------

"Baby's gettin'.."
e:----------3/2----3/2-----------3-2----3-2---------------------3-2----3-2---|
B:----------3-3-3--3-3-3---------3-3-3--3-3-3-------------------3-3-3--3-3-3-|
G:----2~-----------------2~-------------------2~-----------------------------|
D:----2~-----------------2~-------------------2~-----------------------------|
A:----0~-----------------0~-------------------0~-----------------------------|
E:---------------------------------------------------------------------------|

repeat
e:----------3-2----3-2----------------------3--3--------|
B:----------3-3-3--3-3-3-------------3~-----3--3---3-3--|
G:2~---------------------5~----7~----2~-----0--0---2-2--|
D:2~---------------------3~----5~----0~-----0--0---0-0--|
A:0~----------------------------------------------------|
E:------------------------------------------------------|

"The plaster's.."
e:---------3---------------------3-------------------------------------------|
B:---------3-----------3---------3----------3--------------------------------|
G:---------0-----------2---------0----------2-----5~---7~--------------------|
D:---------0--------0--0---------0--------0-0-----3~---5~----2-2-4-2-4-2-4-2-|
A:---------x----2-3--------------x----2-3--------------------0-0-0-0-0-0-0-0-|
E:--0-2-3--3---------------0-2-3-3-------------------------------------------|

"Plaster.."
e:---------------------3-----------------3---------------------------------|
B:--------3------------3----------3------3---------------------------------|
G:---5-5--2------------0-----5-5--2------0----5~----5~---------------------|
D:---5-5--0------------0-----5-5--0------0----3~----5~----5~----5-5--------|
A:---3-3---------------x-----3-3---------x----------3~----5~----3-3--5-5---|
E:---------------------3-----------------3----------------3~---------3-3---|

solo
e:---------------------------------------------------------------------------|
B:---8--8-/8/8-/8----------------------8--8-8--8-8--8---5/8/5--5--8b-8b-8b~--|
G:---7--7b/7/7b/7--7b-7-5/7/5---5------7b/7/7b/7/7b/7--------7---------------|
D:---------------------------7----7-5----------------------------------------|
A:---------------------------------------------------------------------------|
E:---------------------------------------------------------------------------|
e:--------11b-11b~-----------13b-13b~--------10----13b-13--10/13/10--10------|
B:8/10-13-----------10/12-15-----------5/7-10--10------------------13---13b-13|
G:---------------------------------------------------------------------------|
D:---------------------------------------------------------------------------|
A:---------------------------------------------------------------------------|
E:---------------------------------------------------------------------------|

"Plaster.."
e:--------|---------------3----------------3-------------------------3---|
B:--12~---|------3--------3-------3--------3-------------------------3---|
G:--------|--5-5-2-2-4-2--0---5-5-2-2-4-2--0----5~---------5~--------0---|
D:--------|--5-5-0-0-0-0--0---5-5-0-0-0-0--0----3~---3-2-0-5~--------0---|
A:--------|--3-3----------x---3-3----------x---------------3~--3-2-0-x---|
E:--------|---------------3----------------3-------------------------3---|



A C D F G
variations - click chord images
Transpose chords:
Tuning:
Cool service:
View: Size:
A  A  A
Rating:
Layout:
  • Currently 3.5/5 Stars.
  • 1
  • 2
  • 3
  • 4
  • 5
 
Accuracy:
  • Currently 2/5 Stars.
  • 1
  • 2
  • 3
  • 4
  • 5
 
click stars to rate
Chordie recommends:
Learn to play guitar with video-based, online guitar lessons at JamPlay.com
Songbook:
Login to add this song to your songbook
Support the artist
Preview/buy this song
MSN Music
Why this non-profit ad?

 
login to add comments/video/corrections