Guitar Tabs, Chords and Lyrics


Paralyzed   Kiss


---------











D|----------------------------------------------------------------------|



A|----------------------------------------------------------------------|



F|----------------------------------------------------------------------|



C|----------------------------------------------------------------------|



G|----------------------------------------------------------------------|



D|-0h2-2-2-2-2-2-2-2-2-2-2-2-2-2-2-2-2-2-2-2-2-2-2-2-2-2-2-2-2-2-2------|



       P.M. - - - - - - - - - - - - - - - - - - - - - - - - - - ->



D|----------------------------------------------------------------------|



A|----------------------------------------------------------------------|



F|----------2------------2--------------2-------------------------------|



C|----------2------------2--------------2-------------------------------|



G|----------------------------------------------------------------------|



D|--0h2-2-2------0h2-2-2--------0h2-2-2-----0-2p0-3p0-4p0-5-------------|



D|----------------------------------------------------------------------|



A|----------------------------------------------------------------------|



F|----------------------------------------------------------------------|



C|-2--------------------------------------------------------------------|



G|-2---x\---------------------------------------------------------------|



D|-0---x\-0h2-2-2-2-2-2-2-2-2-2-2-2-2-2-2-0h2-2-2-2-2-2-0-2p0-3p0-4p0-5-|



              P.M. - - - - - - - - - - ->	   P.M. - ->	



D|----------------------------------------------------------------------|



A|----------------------------------------------------------------------|



F|----------------------2------------2--------------2-------------------|



C|-2--------------------2------------2--------------2----4--------------|



G|-2------x\---------------------------------------------4--------------|



D|-0------x\----0h2-2-2------0h2-2-2--------0h2-2-2------2----0h2p0-----|



D|----------------------------------------------------------------------|



A|-----10-10-10-10---9-9-9-9---10------10-10-10-10---9-9-9-9---10-------|



F|-----9--9--9--9----9-9-9-9---9-------9--9--9--9----9-9-9-9---9--------|



C|----------------------------------------------------------------------|



G|--5-------------------------------------------------------------------|



D|----------------------------------------------------------------------|



D|----------------------------------------------------------------------|



A|----------------------------------------------------------------------|



F|----------------------------------------------------------------------|



C|----------------------2p0-------2-------------------------------------|



G|--------------------------2p0---2-------------------------------------|



D|--0-0-0-0-0-0-0-0-0-0---------3-0----------0-2--3--4--0---------------|



    P.M. - - - - - - ->



D|----------------------------------------------------------------------|



A|-----10-10-10-10---9-9-9-9---10------10-10-10-10---9-9-9-9---10-------|



F|-----9--9--9--9----9-9-9-9---9-------9--9--9--9----9-9-9-9---9--------|



C|----------------------------------------------------------------------|



G|--5-------------------------------------------------------------------|



D|----------------------------------------------------------------------|



D|----------------------------------------------------------------------|



A|----------------------------------------------------------------------|



F|---------------------------------------------------------2------------|



C|--------------------------2p0-----------------------4----2------------|



G|------------------------------2p0-------------------4----0------------|



D|--0-0-0-0-0-0-0-0-0-0-0-0-----------2-2-2-2-2-2-2-2-2-----------------|



    P.M. - - - - - - - - ->           P.M. - - - - ->



D|----------------------------------------------------------------------|



A|----------------------------------------------------------------------|



F|--2--4--4------------------2------------------2------------------2----|



C|--2--4--4------------------2-----2--2---------2-----2--2----4----2----|



G|--0--2--2------------------0-----2--2---------0-----2--2----4----0----|



D|---------------------------------0--0---------------0--0----2---------|



D|----------------------------------------------------------------------|



A|--10--12--12--------------10------------------10-----------------10---|



F|--9---11--11--------------9------9--9---------9----9--9----11----9----|



C|--7---9---9---------------7------9--9---------7----9--9----11----7----|



G|---------------------------------7--7--------------7--7----9----------|



D|----------------------------------------------------------------------|



D|----------------------------------------------------------------------|



A|----------------------------------------------------------------------|



F|--2--4--4----------------2--------------------------------------------|



C|--2--4--4----------------2----2--2----------2----4--4---------0-------|



G|--0--2--2----------------0----2--2----------2----4--4-----------2p0-2-|



D|------------------------------0--0----------0----2--2-----0h2---------|



D|----------------------------------------------------------------------|



A|--10--12--12------------10--------------------------------------------|



F|--9---11--11------------9----9--9-----------9---11--11----------------|



C|--7---9---9-------------7----9--9-----------9---11--11--------0-------|



G|-----------------------------7--7-----------7---9---9-----------2p0-2-|



D|----------------------------------------------------------0h2---------|



D|----------------------------------------------------------------------|



A|----------------------------------------------------------------------|



F|----11-11-11-11---10-10-10-10---11------11-11-11-11-------------------|



C|----9--9--9--9----9--9--9--9----9-------9--9--9--9--------------------|



G|----------------------------------------------------------------------|



D|-----------------------------------------------------0-2--3--4--5-----|



D|----------------------------------------------------------------------|



A|----------------------------------------------------------------------|



F|----------------------------------------------------------------------|



C|----------------------------------------------------------------------|



G|--2----4-2-4-4--2---4-2-4---2----4-2-4-4--2---4-2-4-2-----------------|



D|------------------------------------------------------4-2---4--4\-----|



D|-----------------------------------------------------------------------|



A|-----------------------------------------------------------------------|



F|-----------------------------------------------------------------------|



C|----------------------------------------------------------------6------|



G|-2--4-2-4-4--2--4-2-4--2--4-2-4-4--2--4-2-4-2-------------------6------|



D|----------------------------------------------4-2-4-4\--2-4--4\-4-2h4p2|



D|-----------------------------------------------------------------------|



A|-----------------------------------------------------------------------|



F|-----------------------------------------------------------------------|



C|-4--6-4-6-6--4--6-4-6--4--6-4-6-6--4--6-4-6-4--------------------------|



G|----------------------------------------------6-4-6-6\--4-6--6\--------|



D|-----------------------------------------------------------------------|



D|----------------------------------------------------------------------|



A|----------------------------------------------------------------------|



F|----11-11-11-11---10-10-10-10--10-11----------------------------------|



C|----9--9--9--9----9--9--9--9---9--9-----------------------------------|



G|----------------------------------------------------------------------|



D|----------------------------------------------------------------------|



D|----------------------------------------------------------------------|



A|----------------------------------------------------------------------|



F|---------------4b**----4**--------------------------------------------|



C|---2(4)---------------------------------------------------------------|



G|----------------------------------------------------------------------|



D|---------------------------0------------------------------------------|



D|----------------------------------------------------------------------|



A|-----------------10---10----------------------------------------------|



F|-----------11----9----9-----------------------------------------------|



C|-----------11----7----7-----------------------------------------------|



G|-----------9----------------------------------------------------------|



D|--2-------------------------------------------------------------------|



D|--------------------------9-----12----14----14--14-14------17b-17r~---|



A|--15------x-10b-10r~------12b~--15b~--17b~--17b--------17-------------|



F|--14b-----------------------------------------------------------------|



C|----------------------------------------------------------------------|



G|----------------------------------------------------------------------|



D|----------------------------------------------------------------------|



D|------------------------12--12-12----15p-12~--------------------------|



A|------------------------15b-------15--------------15p-12----12-15b~---|



F|---------------------------------------------------------14-----------|



C|--2p**-0---------2**--------------------------------------------------|



G|-------2p**-0---------------------------------------------------------|



D|------------3**-------------------------------------------------------|



D|-----------------------14---------------------------------------------|



A|---17p-14----14-17b~---17b~-------------------------------------------|



F|----------16----------------------------------------------------------|



C|----------------------------------------------------------------------|



G|----------------------------------------------------------------------|



D|----------------------------------------------------------------------|



D|----------------------------------------------------------------------|



A|----------------------------------------------------------------------|



F|----------------------------------------------------------------------|



C|----------------------------------------------------------------------|



G|-----5**-----7**-----------5**-----7**--------------------------------|



D|--0-------0-------------0-------0-------------------------------------|



D|-------------------------------19~------16--16-16-16--16-16-16h-19-16~|



A|--19b-19-19b-19r-17~--\--17-17----------19b-------19b-----------------|



F|----------------------------------------------------------------------|



C|----------------------------------------------------------------------|



G|----------------------------------------------------------------------|



D|----------------------------------------------------------------------|



D|--18--18-18--18--18-18------------------------------------------------|



A|--21b--------21b--------21b-21r-19~-----------------------------------|



F|----------------------------------------------------------------------|



C|----------------------------------------------------------------------|



G|----------------------------------------------------------------------|



D|----------------------------------------------------------------------|



D|----------------------------------------------------------------------|



A|--17b---17-15--17p-15-------------------------------------------------|



F|-----------------------16-14-16-----16-------------/16~---------------|



C|----------------------------------------14------12--------------------|



G|----------------------------------------------------------------------|



D|----------------------------------------------------------------------|



D|----------------------------------------------------------------------|



A|--10b~--7----7-------------7~--7--------------------------------------|



F|----------10---10-9-7------------10-9-7-------------------------------|



C|-----------------------------------------7h-9-------------------------|



G|----------------------------------------------------------------------|



D|----------------------------------------------------------------------|



D|----------------------------------------------------------------------|



A|-------------15-17b~---------------------------------15---------------|



F|------14-16------------------------------------14-16----16~-----------|



C|--/16-----------------------------------------------------------------|



G|----------------------------------------------------------------------|



D|----------------------------------------------------------------------|



D|---14-----------14----------14----------------------------------------|



A|---17b~--17-15-17b~--17-15--17b~--------------------------------------|



F|----------------------------------------------------------------------|



C|-----------------------------------16-16~-----------------------------|



G|----------------------------------------------------------------------|



D|----------------------------------------------------------------------|



D|----------------------------------------------------------------------|



A|----------15----------------------------------------------------------|



F|-------------16-14-16\------------------------------------------------|



C|--14h-16--------------------------------------------------------------|



G|----------------------------------------------------------------------|



D|----------------------------------------------------------------------|



D|-----------------------------------------------------------------------|



A|-----------------------------------------------------------------------|



F|----------------------------0--------------------2b2p0-2-0-------------|



C|----2-0---0-2--2--2-0---0-2---2----2-0---0-2--2------------2-----------|



G|--------2-------------2----------------2-------------------------------|



D|--0--------------------------------------------------------------------|



D|---------------------------------2-------------------------------------|



A|-----------------------------------5-2---------/7~---------------------|



F|--------------2-4-4b-2-4b---2----------5-4-2---------------------------|



C|--4---------4-----------------4~---------------------------------------|



G|-----------------------------------------------------------------------|



D|-----------------------------------------------------------------------|



D|------12-------12-15p12----12-----------12-------12-15p12----12--------|



A|---------15p12----------15----15-12--------15p12----------15----15-12--|



F|--14b-------------------------------14b--------------------------------|



C|-----------------------------------------------------------------------|



G|-----------------------------------------------------------------------|



D|-----------------------------------------------------------------------|



D|-15p12---15p12---15p12--15p12--15b-15~-------------14--------------17--|



A|------15------15------15-----15---------16p14------17b--16p14------20b-|



F|----------------------------------------16p14-----------16p14----------|



C|---------------------------------------------16-14-----------16-14-----|



G|-----------------------------------------------------------------------|



D|-----------------------------------------------------------------------|



D|--14---16---17---19---21--19--22~--------------------------------------|



A|--17b--19b--20b--------------------------------------------------------|



F|-----------------------------------------------------------------------|



C|-----------------------------------------------------------------------|



G|-----------------------------------------------------------------------|



D|-----------------------------------------------------------------------|



Important: The song above is NOT stored on the Chordie server. The original song is hosted at www.xguitar.com. Chordie works as a search engine and provides on-the-fly formatting. Chordie does not index songs against artists/composers will. To remove this song please click here.

This song is displayed as text-only. Transposing and tuning is only available for chordpro-songs.

Login - add to songbook

Rating click stars to rate

Layout
Accuracy

SHARE PAGE  




You need to log in to post comments