Chordie logo


Take It Off   Kiss


-----------











D|-----------------------------------------------------------------|



A|-----------------------------------------------------------------|



F|---------2-----0--------2---------2-----0--------0---------------|



C|------2-----2--------2---------2-----2--------2------------------|



G|---0--------------0------------------------0---------------------|



D|-----------------------------------------------------------------|



D|-----------------------------------------------------------------|



A|--8------------7------------5------------------------------------|



F|--7------------7------------5------------------------------------|



C|--9------------7------------5------------------------------------|



G|-----------------------------------------0--0--0--0--0--0--0--0--|



D|-----------------------------------------------------------------|



			   Light P.M. - - - - - - - - ->



D|-----------------------------------------------------------------|



A|-------------------3---3--3--3--3---------------------3--3--3--3-|



F|-------------------2---2--2--0--0---------------------2--2--0--0-|



C|-2--------2--------0---0--0--0--0----2--2--2--2-------0--0--0--0-|



G|-3p-0--0--3p-0--0--------------------0--0--0--3p-0---------------|



D|-----------------------2--2--3--3---------------------2--2--3--3-|



D|-----------------------------------------------------------------|



A|------------------------------------------------3----------------|



F|--------9--------9----------9--------9----------2----------------|



C|--------9--------9----------9--------9----------0----------------|



G|--------7--------7----------7--------7---------------------------|



D|--0--0-----0--0-----0--0-------0--0------------------------------|



D|-----------------------------------------------------------------|



A|------10--x-x-10----x-x-10-x-x-/10~--------------10-x--x-10--x-x-|



F|------9---x-x-9-----x-x-9--x-x-/9~---------------9--x--x-9---x-x-|



C|-----------------------------------------------------------------|



G|-----------------------------------------------------------------|



D|-----------------------------------------------------------------|



D|---------------------------2---------------5--------7------------|



A|--10-x-x-/10~-------------------3-------------6----------8-------|



F|--9--x-x-/9~-------------------------2-----------5----------7----|



C|----------------------0------------------------------------------|



G|-----------------------------------------------------------------|



D|-----------------------------------------------------------------|



		Let ring - - - - - - - - - - - - - - - - ->



D|-----------------------------------------------------------------|



A|--------------------------3------3----3--------------------------|



F|--2-----------------------0------0----0--------------------------|



C|--2-----------------------0------0----0--------------------------|



G|--0-------/-12\-----------x------x----x--------------------------|



D|----------/-12\-----------3------3----3--------------------------|



D|-----------------------------------------------------------------|



A|----------------------------3--3-------------------------------3-|



F|-2---2-------2-----2--------2--2-----2---2-------2-----2-------2-|



C|-2---2-------2-----2--------0--0-----2---2-------2-----2-------0-|



G|-0---0-------0-----0-----------------0---0-------0-----0---------|



D|--------3--0----------3--0------------------3--0----------3--0---|



D|-----------------------------------------------------------------|



A|----------------------------------3---3-----------------3--------|



F|--2-----2--------2-------2--------2---2-----------------2--------|



C|--2-----2--------2-------2--------0---0------2----------0--------|



G|--0-----0--------0-------0-------------------2-------------------|



D|-----------3--0-------------3--0-------------0-------------------|



D|-----------------------------------------------------------------|



A|------5-6-5----------------------------5-6-5---------------------|



F|-5---5------5--3------------------5---5-------------5----3-------|



C|-5--5--------5-3----3-------------5--5--------------5----3-----3-|



G|-3-------------1----3-------------3-----------5h-7-------1-----3-|



D|--------------------1---1--3/-5--------------------------------1-|



  



D|-----------------------------------------------------------------|



A|------5-6-5------------------------------------------------------|



F|--5--5-------------5-----3------5------5--7--------------------5-|



C|--5-5--------------5-----3------5------5--7--------------------5-|



G|--3----------5h-7--------1------3------3--5--5--5--5--5--5--5--3-|



D|-----------------------------------------------------------------|



D|-----------------------------------------------------------------|



A|-----------------------------------------------------------------|



F|-7-------------------7--9----------------------------------------|



C|-7-------------------7--9----------------------------9-9-9-9-9-9-|



G|-5-5--5--5--5--5--5--5--7-7--7--7--7--7--7--7--7--7--7-7-7-7-7-7-|



D|-----------------------------------------------------------------|



D|------------------------------------------------------------------|



A|--10--10--10--10--10--10--10--10--6--6--6--8--8--8--8--8----------|



F|--9---9---9---9---9---9---9---9---5--5--5--7--7--7--7--7----------|



C|------------------------------------------------------------------|



G|------------------------------------------------------------------|



D|------------------------------------------------------------------|



D|------------------------------------------------------------------|



A|--8--8--8--8--8--8--8--8--6--6--6--8--8--8--8--8------------------|



F|--7--7--7--7--7--7--7--7--5--5--5--7--7--7--7--7------------------|



C|------------------------------------------------------------------|



G|------------------------------------------------------------------|



D|------------------------------------------------------------------|



D|------------------------------------------------------------------|



A|--10--10--10--10--10--10--10--10------3------3----3---------------|



F|--9---9---9---9---9---9---9---9-------0------0----0---------------|



C|--------------------------------------0------0----0---------------|



G|--------------------------------------x------x----x---------------|



D|--------------------------------------3------3----3---------------|



D|------------------------------------------------------------------|



A|------------------------------3--------7-------------------5----7-|



F|-2----2-------2------2--------0-------------7---------7-----------|



C|-2----2-------2------2--------0------------------7----------------|



G|-0----0-------0------0--------x-----------------------------------|



D|---------3--0-----------3--0--3-----------------------------------|



D|------------------------------------------------------------------|



A|------------------------------------------------------------------|



F|--2--------2------------------------------------------------------|



C|--2--------2------------------------------------------------------|



G|--0--------0------------------------------------------------------|



D|------------------------------------------------------------------|



D|--------------------------------|



A|--------------------------------|



F|--7-----------------------------|



C|-------7---------7----7----7----|



G|------------9-------------------|



D|--------------------------------|



D|-------17-17----17-----------17----------17---------------------------------|



A|-20b--------20b---20p17-20b----20p17-20b---20p17-20b-17h20p17--17-----------|



F|-------------------------------------------------------------19--19p17--19p-|



C|----------------------------------------------------------------------19----|



G|----------------------------------------------------------------------------|



D|----------------------------------------------------------------------------|



D|----------------------------------------------------------------------------|



A|----------------------------------------------------------------------------|



F|-17~----------5-7--8--7--5--8--7--5~----------------------------------------|



C|------------7---------------------------------------------------------------|



G|-------19\---------------------------3**p0--5**p0--7**p0-3**p0--5**p0--7**p0|



D|-------19\------------------------------------------------------------------|



D|----------------------------------------------------------------------------|



A|------------------------------------------------8~-8~-8~-8~-8~-8~-8~--------|



F|----------------------------------0**--2**------9~-9~-9~-9~-9~-9~-9~--------|



C|-----0h2p0------------------------------------------------------------------|



G|--3---------3h5p3~----------------------------------------------------------|



D|---------------------------3b**---------------------------------------------|



D|----------------------------------------------------------------------------|



A|--15b-----15p13-------------------------------------------------------------|



F|----------------14--------------12----14----12------------------------------|



C|------------------------12h14------14----14----14-13-12-10~-----------------|



G|----------------------------------------------------------------------------|



D|----------------------------------------------------------------------------|



D|-------5--------------------------------------------------17----------------|



A|-----5---8p5----------------------------------------17h20-----20b~----------|



F|--7b---------8-7-5----------------------------------------------------------|



C|---------------------7p5----------------------------------------------------|



G|--------------------------5h7p--5--3h5p3------------------------------------|



D|------------------------------------------3h5p3-----------------------------|



D|------17-------17-----17-------17-----17-------20b--20~---------------------|



A|---------20p17----20b----20p17----20b----20p17------------------------------|



F|----------------------------------------------------------------------------|



C|----------------------------------------------------------------------------|



G|----------------------------------------------------------------------------|



D|----------------------------------------------------------------------------|



D|----17-------17-------------------------------------------------------------|



A|-------20p17------17--------------------------------------------------------|



F|-19b--------------19b-x-7b-x-(7)-x-(7)-x-(7)-5h7--5~------------------------|



C|----------------------------------------------------------------------------|



G|----------------------------------------------------------------------------|



D|----------------------------------------------------------------------------|



D|--------------------------------------------------------20b--20~------------|



A|--20--20-----17--17-20p-17----17-20p-17----17-20b~--------------------------|



F|--19b-19b----19b-----------19-----------19----------------------------------|



C|----------------------------------------------------------------------------|



G|----------------------------------------------------------------------------|



D|----------------------------------------------------------------------------|



D|----------------------------------------------------------------------------|



A|--15b---15-13-15-13------------------------------8--------------------------|



F|--------------------14-12-14-12------------------7b-7r-7b-7r-7b-7r-7b-7r----|



C|--------------------------------14-12-10~-----------------------------------|



G|----------------------------------------------------------------------------|



D|----------------------------------------------------------------------------|



D|--17--17-17-17-17-----------------------------------------------------------|



A|--20b---------------20p-17--------------8----8----8-------------------------|



F|---------------------------19-17~-------7b---7b---7b---5-7p-5---5-----------|



C|--------------------------------------------------------------7---7-5-------|



G|----------------------------------------------------------------------7-5-3-|



D|----------------------------------------------------------------------------|



   



D|----------------------------------------------------------------------------|



A|--/8-8-8-8~--/8-8-8-8~---13~---13~--13~--13~--13~---------------------------|



F|---9-9-9-9~---9-9-9-9~------14~--14~--14~--14~--14\-------------------------|



C|----------------------------------------------------------------------------|



G|----------------------------------------------------------------------------|



D|----------------------------------------------------------------------------|



		     Let ring - - - - - - - - >



D|-------------------------------------------------17-------------------------|



A|--13---15---13---15p-13-15-13h-15p-13~---------17---20p-17---20p-17---------|



F|----14---14---14----------------------------19b------------19-------19~-----|



C|----------------------------------------------------------------------------|



G|----------------------------------------------------------------------------|



D|----------------------------------------------------------------------------|



Important: The song above is NOT stored on the Chordie server. The original song is hosted at www.xguitar.com. Chordie works as a search engine and provides on-the-fly formatting. Chordie does not index songs against artists/composers will. To remove this song please click here.

This song is displayed as text-only. Transposing and tuning is only available for chordpro-songs.

Login - add to songbook

Rating click stars to rate

Layout
Accuracy

SHARE PAGE  




You need to log in to post comments