Guitar Tabs, Chords and Lyrics


Save Me    Kmfdm



KMFDM - Save Me
tuning: drop d (low to high: D A D G B e)


p.m.=palm muting

Intro:
|-------------------------------------------------------------
|-------------------------------------------------------------
|-------6-6--4--4-4--6-4-3--------6-6--11-13--9-8-7-----------
|--1-1--6-6--4--4-4--6-4-3---1-1--6-6--11-13--9-8-7--1-1-1-1--
|--1-1--4-4--2--2-2--4-2-1---1-1--4-4---9-10--7-6-5--1-1-1-1--
|--1-1-----------------------1-1---------------------1-1-1-1--
p.m.---

|-------------------------------------------------------------------
|-------------------------------------------------------------------
|-------6-6--4--4-4--6-4-3--------6-6--11-13--15-16-15-16-15-16-----
|--1-1--6-6--4--4-4--6-4-3---1-1--6-6--11-13--------------------16--
|--1-1--4-4--2--2-2--4-2-1---1-1--4-4---9-13------------------------
|--1-1-----------------------1-1------------------------------------

|-----------------------------------------------------------------
|-----------------------------------------------------------------
|-----8--11--6--6--8--4--4-4--6--4--3-3--------------8--11--6--6--
|--1--8--11--6--6--8--4--4-4--6--4--3-3--1-1-1-1--1--8--11--6--6--
|--1--6---9--4--4--6--2--2-2--4--2--1-1--1-1-1-1--1--6---9--4--4--
|--1-------------------------------------1-1-1-1--1---------------
p.m.---

|--------------------------------------|
|--------------------------------------|
|--11-11--13-13--15-16-15-16-15-16-----|
|--11-11--13-13--------------------16--|
|---9--9--11-11------------------------|
|--------------------------------------|

Verse:
|---------------------|
|---------------------|
|---------------------|
|--1--1-1-1-1-1-1--2--|
|--1--1-1-1-1-1-1--2--|
|--1--1-1-1-1-1-1--2--|
p.m.-------

Chorus:
|-------------------------------------------------
|-------------------------------------------------
|-----8--11--6--6--8--4--4-4--6--4--3-3----------- x3
|--1--8--11--6--6--8--4--4-4--6--4--3-3--1-1-1-1--
|--1--6---9--4--4--6--2--2-2--4--2--1-1--1-1-1-1--
|--1-------------------------------------1-1-1-1--
p.m.---

|------------------------------------------------------|
|------------------------------------------------------|
|-----8--11--6--6--11-11--13-13--15-16-15-16-15-16-----|
|--1--8--11--6--6--11-11--13-13--------------------16--|
|--1--6---9--4--4---9--9--11-11------------------------|
|--1---------------------------------------------------|

Verse:
|---------------------|
|---------------------|
|---------------------|
|--1--1-1-1-1-1-1--2--|
|--1--1-1-1-1-1-1--2--|
|--1--1-1-1-1-1-1--2--|
p.m.-------

Chorus:
|-------------------------------------------------
|-------------------------------------------------
|-----8--11--6--6--8--4--4-4--6--4--3-3----------- x3
|--1--8--11--6--6--8--4--4-4--6--4--3-3--1-1-1-1--
|--1--6---9--4--4--6--2--2-2--4--2--1-1--1-1-1-1--
|--1-------------------------------------1-1-1-1--
p.m.---

|------------------------------------------------------|
|------------------------------------------------------|
|-----8--11--6--6--11-11--13-13--15-16-15-16-15-16-----|
|--1--8--11--6--6--11-11--13-13--------------------16--|
|--1--6---9--4--4---9--9--11-11------------------------|
|--1---------------------------------------------------|

|-----------------------------------------------------|
|-----------------------------------------------------|
|--4-4-4-4-4-4-4-4--3-3-3-3-3-3-3-3--3--8---8-6--8-6--| x2
|--4-4-4-4-4-4-4-4--3-3-3-3-3-3-3-3--3--8---8-6--8-6--|
|--2-2-2-2-2-2-2-2--1-1-1-1-1-1-1-1--1--6---6-4--6-4--|
|-----------------------------------------------------|

play this whole thing 2 times
|--------------------------------------------------------
|--------------------------------------------------------
|-----8--11--6--6--8--4--4-4--6--4--3-3-----8--11--6--6--
|--1--8--11--6--6--8--4--4-4--6--4--3-3--1--8--11--6--6--
|--1--6---9--4--4--6--2--2-2--4--2--1-1--1--6---9--4--4--
|--1-------------------------------------1---------------

|--------------------------------------|
|--------------------------------------|
|--11-11--13-13--15-16-15-16-15-16-----|
|--11-11--13-13--------------------16--|
|---9--9--11-11------------------------|
|--------------------------------------|

then:
|-------------------------------------------------------------
|-------------------------------------------------------------
|-------6-6--4--4-4--6-4-3--------6-6--11-13--9-8-7-----------
|--1-1--6-6--4--4-4--6-4-3---1-1--6-6--11-13--9-8-7--1-1-1-1--
|--1-1--4-4--2--2-2--4-2-1---1-1--4-4---9-10--7-6-5--1-1-1-1--
|--1-1-----------------------1-1---------------------1-1-1-1--
p.m.---

|-------------------------------------------------------------------|
|-------------------------------------------------------------------|
|-------6-6--4--4-4--6-4-3--------6-6--11-13--15-16-15-16-15-16-----|
|--1-1--6-6--4--4-4--6-4-3---1-1--6-6--11-13--------------------16--|
|--1-1--4-4--2--2-2--4-2-1---1-1--4-4---9-13------------------------|
|--1-1-----------------------1-1------------------------------------|

Chorus/Outro:
|-------------------------------------------------
|-------------------------------------------------
|-----8--11--6--6--8--4--4-4--6--4--3-3----------- x3
|--1--8--11--6--6--8--4--4-4--6--4--3-3--1-1-1-1--
|--1--6---9--4--4--6--2--2-2--4--2--1-1--1-1-1-1--
|--1-------------------------------------1-1-1-1--
p.m.---

|------------------------------------------------------|
|------------------------------------------------------|
|-----8--11--6--6--11-11--13-13--15-16-15-16-15-16-----|
|--1--8--11--6--6--11-11--13-13--------------------16--|
|--1--6---9--4--4---9--9--11-11------------------------|
|--1---------------------------------------------------|






Important: The song above is NOT stored on the Chordie server. The original song is hosted at www.xguitar.com. Chordie works as a search engine and provides on-the-fly formatting. Chordie does not index songs against artists'/composers' will. To remove this song please click here.

This song is displayed as text-only. Transposing and tuning is only available for chordpro-songs.

Login - add to songbook

Rating click stars to rate

Layout
Accuracy

SHARE PAGE  




You need to log in to post comments