Guitar Tabs, Chords and Lyrics


Leid und Elend    Kmfdm



intro keyboard:
e-8-10-12-5-5-5-2-3-5-8-8----5-7-8-2-2-2---0-2-5-5-|
B----------------------------------------4---------|
G--------------------------------------------------|
D--------------------------------------------------|
A--------------------------------------------------|
E--------------------------------------------------|

2nd time this intro goes, this plays under it:
e-------------------|
B-------------------|
G--555555----222222-|
D-------------------|
A-------------------|
E-------------------|
those aren't the right amount of times, just listen.

Bassline at :22 or so
e--------------------------------
B--------------------------------
G--------------------------------
D--------------------------------
A--------------------------------
E-2-0-2h5-7p4-2-5----------------
they do that twice, and in between there's some more bass,
mostly 5's and a variation on the above one.

Heavy Guitar bits:
e----------------------
B----------------------
G----------------------
D-7-10-----------------
A-7-10-----------------


Important: The song above is NOT stored on the Chordie server. The original song is hosted at www.xguitar.com. Chordie works as a search engine and provides on-the-fly formatting. Chordie does not index songs against artists'/composers' will. To remove this song please click here.

This song is displayed as text-only. Transposing and tuning is only available for chordpro-songs.

Login - add to songbook

Rating click stars to rate

Layout
Accuracy

SHARE PAGE  




You need to log in to post comments