Guitar Tabs, Chords and Lyrics


Megalomaniac    Kmfdm



Verse riff:
e----------
B----------
G----------
D-4-4--5-5-
A-4-4--5-5-
E-2-2--3-3-

there's also an electronic bassline which is basically the same;
e---------------
B---------------
G---------------
D---------------
A---------------
E-2-x-x-x-2-3-2-

then there's the chorus riff:
e----------------------------------------------------------------
B----------------------------------------------------------------
G----------------------------------------------------------------
D----------11-12----------11-14----------11-12-------------------
A--7h9-7h9--9-10--7h9-7h9--9-12--7h9-7h9--9-10--7h9-7h9-5h7-3h5--
E----------------------------------------------------------------

Then, at 3:30, there's another part (an interlude, I suppose)
e----------------------------------------
B----------------------------------------
G----------------------------------------
D-11--9/12-12-10--7-6--11--9/12-12-9-11--
A--9--7/10-10--9--5-4---9--7/10-10-7--9--
E----------------------------------------

which ends, at about 4:00, with
e--------------
B--------------
G--------------
D--------------
A--------------


Important: The song above is NOT stored on the Chordie server. The original song is hosted at www.xguitar.com. Chordie works as a search engine and provides on-the-fly formatting. Chordie does not index songs against artists'/composers' will. To remove this song please click here.

This song is displayed as text-only. Transposing and tuning is only available for chordpro-songs.

Login - add to songbook

Rating click stars to rate

Layout
Accuracy

SHARE PAGE  




You need to log in to post comments