Guitar Tabs, Chords and Lyrics


Spit Sperm    Kmfdm



Drop D Tuning : D A D G B E

Key : / = Slide Down
      \ = Slide Up
      * = Palm Mute (Apart From Different Noted Meanings)
     >< = Wah Pedal (Use Your Imagination With The FootWork!)
      ^ = harmonics

This first guitar riff doesn't start until (0:55 secs) into the song. Play this
very fast as it's difficult to tab all the palm muted notes I suggest playing
with the song to get the timing. Play both parts twice
i.e. -1--1:A--1--1:A-

-1- (0:55 secs)
D --7-7*-7*-7*-7*-7*-7*-7*-12--12-/-10-7*-7*-7*-7*-5--7--8-\-10----|
A --7----------------------12--12-/-10-------------5--7--8-\-10----|
D --7----------------------------------------------5--7--8-\-10----|
G -----------------------------------------------------------------|
B -----------------------------------------------------------------|
E -----------------------------------------------------------------|

-1:A- (0:59 secs)
D --7-7*-7*-7*-7*-7*-7*-7*-12--12-/-10-7*-7*-7*-7*-7*-7*-----------|
A --7----------------------12--12-/-10-----------------------------|
D --7--------------------------------------------------->7-7-7-77-7-7-7

Important: The song above is NOT stored on the Chordie server. The original song is hosted at www.xguitar.com. Chordie works as a search engine and provides on-the-fly formatting. Chordie does not index songs against artists'/composers' will. To remove this song please click here.

This song is displayed as text-only. Transposing and tuning is only available for chordpro-songs.

Login - add to songbook

Rating click stars to rate

Layout
Accuracy

SHARE PAGE  




You need to log in to post comments