Chordie logo

Power    Kmfdm



KMFDM
POWER
XTORT
Drop D tuning. 

jnoble@16volt.net
G------------------------------------------      
D------------------------------------------      
A-5/6\5-5-5-5-5-5-7/8\7-5------------------ 
D------------------------------------------ 
G-------------------------11--11-------------------9-----|       
D----------9-9--11--11------------------7-7--9-9---------| 
A-10-10---------------------------8-8--------------------|              
D--------------------------------------------------------| 
G-------------------------------------------------------------|
D-------------------------------------------------------------|
A-------5\7----5\7-----------5\7------5\7---------------------|         
D-------5\7----5\7-----------5\7------5\7------5-5-5-5--------|
G---------------------------------------------------------------------|
D--5----8--8----3-------5------8--8------10--10--10--10--10--10-------|     
A--3----6--6----1-------3------6--6-------8---8---8---8---8---8-------|      
D---------------------------------------------------------------------|
G----------------------------------------------------------|
D----------------------------------------------------------|
A-------5\7----5\7-----------5\7------5\7------------------|   
D-------5\7----5\7-----------5\7------5\7------5-5-5-5-----|   


G---------------------------------------------------------------------|
D--5----8--8----3-------5------8--8------10--10--10--10--10--10-------|     
A--3----6--6----1-------3------6--6-------8---8---8---8---8---8-------|      
D---------------------------------------------------------------------|

G------------------------------------------------------------------------
D----------------------------------------------------------------------|
A---------------------2/3\3--0---5-5-5-5-5-5-5-5---3-3-3-3-3-3---------|   
D----0-0-0-0-0-0-0-0--2/3\2--0---5-5-5-5-5-5-5-5---3-3-3-3-3-3---------|


G-------------------------------------------------------------|
D-------------------------------------------------------------|
A-------5\7----5\7-----------5\7------5\7---------------------|         
D-------5\7----5\7-----------5\7------5\7------5-5-5-5--------|

G---------------------------------------------------------------------|
D--5----8--8----3-------5------8--8------10--10--10--10--10--10-------|     
A--3----6--6----1-------3------6--6-------8---8---8---8---8---8-------|      
D---------------------------------------------------------------------|


G-----------------------------------------------------------------------
D-----------------------------------------------------------------------
A---------------------2/3\3--0---5-5-5-5-5-5-5-5---3-3-3-3-3-3----------
D----0-0-0-0-0-0-0-0--2/3\2--0---5-5-5-5-5-5-5-5---3-3-3-3-3-3----------

G------------------------------------------      
D------------------------------------------     
A-5/6\5-5-5-5-5-5-7/8\7-5------------------        
D------------------------------------------

G-------------------------11--11-------------------9-----|       
D----------9-9--11--11------------------7-7--9-9---------| 
A-10-10---------------------------8-8--------------------|              
D--------------------------------------------------------| 

G---------------------------------------------------------------------|
D--5----8--8----3-------5------8--8------10--10--10--10--10--10-------|     

A--3----6--6----1-------3------6--6-------8---8---8---8---8---8-------|      


Important: The song above is NOT stored on the Chordie server. The original song is hosted at www.xguitar.com. Chordie works as a search engine and provides on-the-fly formatting. Chordie does not index songs against artists/composers will. To remove this song please click here.

This song is displayed as text-only. Transposing and tuning is only available for chordpro-songs.

Login - add to songbook

Rating click stars to rate

Layout
Accuracy

Jango Player

SHARE PAGE  

You need to log in to post comments