Guitar Tabs, Chords and Lyrics


No Place To Hide   Korn



Downloaded from WWW.KORNWEB.COM

No Place to Hide - Guitar Tab
1 Transcriptions

--------------------------------------------------------------

Transcribed By: Andy Miles (deftone742@aol.com)

7-string tuned down a full step

Intro
||-----------------------------------
||-14/15-15\14-14/15-15\14-14/15/16--
||-17/18-18\17-17/18-18\17-17/18/19--
||-----------------------------------
||-----------------------------------
||-----------------------------------
||-----------------------------------

Intro 2
||------------------------
||------------------------
||------------------------
||------------------------
||------------------------
||-3/4-4/5-5/6-6/7-7/8-8--
||-1/2-2/3-3/4-4/5-5/6-6--

Verse
||----------------------
||-18------18-----18----
||-----16------16----18-
||----------------------
||----------------------
||----------------------
||----------------------

Chorus
||---------------
||-5---5----5-5--
||-8-x-8--x-8-8--
||---------------
||---------------
||---------------
||---------------

Pre-2nd verse
||-------------------
||-------------------
||-------------------
||-------------------
||-x~~~~~~~~~~~~~~~--
||-------------------
||-------------------

Bridge-same as intro 2
I have no place to run....

Bridge 2
||-----------------------------
||-----------------------------
||-----------------------------
||-13~~~~~~~~~~-14~~~~~~~~~~~--
||-----------------------------
||-----------------------------
||-----------------------------

Bridge 3
||----------------------15^-----------------------
||------------------------------------------------
||------------------------------------------------
||------------------------------------------------^=bend
||------------------------------------------------
||-2--2-2-2-2-2--2-2--2-----2--2-2-2-2-2--2-2--2--


Important: The song above is NOT stored on the Chordie server. The original song is hosted at www.xguitar.com. Chordie works as a search engine and provides on-the-fly formatting. Chordie does not index songs against artists/composers will. To remove this song please click here.

This song is displayed as text-only. Transposing and tuning is only available for chordpro-songs.

Login - add to songbook

Rating click stars to rate

Layout
Accuracy

SHARE PAGE  




You need to log in to post comments