Guitar Tabs, Chords and Lyrics


Coma of souls    Kreator



KREATOR - COMA OF SOULS
(Coma Of Souls, 1990)

Key
= after note = vibrato
^ after note = heavy vibrato
\ = slide down
/ = slide up
+ = tap
h = hammer
p = pull
n = natural harmonic
s = pinching harmonic (squeal)
* = tremolo pick
t = trill
b = bend
|-3-| = triplet

n number above the tab = play the first part then the first finishing part
			 play the first part a second time and then play the second finishing part
			 etc.

Riff 1

E -------------------------------------------------------------------------------------------------------
B -------------------------------------------------------------------------------------------------------
G ------------------4--3---------5--4------------6--7-------------------4--3---------------6--7--6-------
D -8------7--5------4--3--3------5--4--4------4--6--7--8------7--5------4--3--3------4--5--6--7--6--6----
A -8------7--5------2--1--3------3--2--4------4--4--5--8------7--5------2--1--3------4--5--4--5--4--6----
E -6--0-0-5--3--0-0-------1--0-0-------2--0-0-2--------6--0-0-5--3--0-0-------1--0-0-2--3-----------4----

Riff 1A

E ------------------------------------------------------
B ------------------------------------------------------
G -------------------------------------------7--6-------
D -8------7--5------------------8------7--5--7--6--6----
A -8------7--5------------------8------7--5--5--4--6----
E -6--0-0-5--3--0-0-0-0-0-0-0-0-6--0-0-5--3--------4----

Riff 1B

E ---------------------------------------------------------
B ---------------------------------------------------------
G -------------------------------------------7--6----------
D -8------7--5------------------8------7--5--7--6--6--5--2-
A -8------7--5------------------8------7--5--5--4--6--5--2-
E -6--0-0-5--3--0-0-0-0-0-0-0-0-6--0-0-5--3--------4--3--0-

Riff 2

E -------------------------------------------------------------
B -------------------------------------------------------------
G ---------7-------5-------5--8--9-------7-------5-------5-----
D -2-----5-7-----3-5-----3-5--8--9-----5-7-----3-5-----3-5--3--
A -2-----5-5-----3-3-----3-3--6--7-----5-5-----3-3-----3-3--3--
E -0-0-0-----0-0-----0-0-----------0-0-----0-0-----0-0------1--

Riff 3A

E -------------------------------
B -------------------------------
G ---------5-------------4-5-----
D ---------5-------3-----4-5--3--
A -------3---------3-----2-3--3--
E -0-0-0-----0-0-1---0-1------1--

Riff 3A

E -----------------------------------------------------------------------------
B -----------------------------------------------------------------------------
G -----------------------------------------------------------------------------
D ----------------------------------4-5----------------------------------5--4--
A -------3-5-----2-3----------------4-5-------3-5-----2-3-33-33-33-33-33-5--4--
E -0-0-0-----0-0-----00-00-00-00-00-2-3-0-0-0-----0-0--------------------3--2--

Riff 3B

E --------------------------------------------------------------------------
B --------------------------------------------------------------------------
G -----------------------------------------------------------------5--------
D ----------------------------------4-5----------------------------5--5--4--
A -------3-5-----2-3----------------4-5-------3-5-----2-3-33-33-33-3--5--4--
E -0-0-0-----0-0-----00-00-00-00-00-2-3-0-0-0-----0-0-----------------3--2--
								   |--3--|

Riff 4

E -----------------------------------------------------------------------------------------------------------
B -----------------------------------------------------------------------------------------------------------
G -----------7-----------------------------7---5-------5-----------------9-----------------------------------
D -6-------6-7-6-8-------8-------6-------6-7-6-5-------5-------8-------8-9-8-10-------10-------8-------8-4-5-
A -6-------6-5-6-8-------8-------6-------6-5-6-3-3-3-3-3-3-3-3-8-------8-7-8-10-------10-------8-------8-4-5-
E -4-4-4-4-4---4-6-6-6-6-6-6-6-6-4-4-4-4-4---4-----------------6-6-6-6-6---6-8 -8-8-8-8 -8-8-8-6-6-6-6-6-2-3-
           |-3-|                         |-3-|			       |-3-|			       |-3-|

Riff 5

E -----------------------------------------------------------------------------------------------------------
B -----------------------------------------------------------------------------------------------------------
G --------------5--------------------------------------5---5-4-2-4-----------------5-------------------------
D -4----------4-5-4-2----------2----------4----------4-5-4-5-4-2-4----4----------4-5-4-2----------2----------
A -4----------4-3-4-2----------2----------4----------4-3-4-3-2-0-2----4----------4-3-4-2----------2----------
E -2-22-22-22-2---2-0-00-00-00-0-00-00-00-2-22-22-22-2---2------------2-22-22-22-2---2-0-00-00-00-0-00-00-00-
              |-3-|				     |-3-| |-3-|		  |-3-|

E ------------------------------
B ------------------------------
G --------------5---5-4-2-4--8--
D -4----------4-5-4-5-4-2-4--8--
A -4----------4-3-4-3-2-0-2--6--
E -2-22-22-22-2---2-------------
              |-3-| |-3-|

Riff 6

E ------------------------------------------------------------------------
B ------------------------------------------------------------------------
G -9----------9-------9-------9-------10-------10-------10-------12-10-9--
D -9----------9-------9-------9-------10-------10-------10-------12-10-9--
A -7-77-77-77-7-7-7-7-7-7-7-7-7-------8 -8-8-8-8 -8-8-8-8 -8-8-8-10-8 -7--
E ------------------------------8-7-0-------------------------------------

Riff 6A

E -------------------------------------------------------------------------------------
B -------------------------------------------------------------------------------------
G -7----------7----------7----------7-------8----------8----------8----------8-10-9-8--
D -7----------7----------7----------7-------8----------8----------8----------8-10-7-6--
A -5-55-55-55-5-55-55-55-5-55-55-55-5-------6-66-66-66-6-66-66-66-6-66-66-66-6-8 ------
E ------------------------------------6-5-0--------------------------------------------

Riff 7

E -----------------------------------------------------------------------------------------
B -----------------------------------------------------------------------------------------
G -5----------5----------7----------7----------9----------9----------9----------9----------
D -5----------5----------7----------7----------9----------9----------9----------9----------
A -3-33-33-33-3-33-33-33-5-55-55-55-5-55-55-55-7-77-77-77-7-77-77-77-7-77-77-77-7-77-77-77-
E -----------------------------------------------------------------------------------------

E -----------------------------------------------------------------------------------------
B -----------------------------------------------------------------------------------------
G -5----------5----------7----------7----------9----------9---------------------4----------
D -5----------5----------7----------7----------9----------9----------5----------4----------
A -3-33-33-33-3-33-33-33-5-55-55-55-5-55-55-55-7-77-77-77-7-77-77-77-5----------2-22-22-22-
E -------------------------------------------------------------------3-33-33-33------------

Riff 8

E -------------------------------------------------------------------------------------------------
B -------------------------------------------------------------------------------------------------
G -------------------------6-----------2-----3-----------------------------------------------------
D -2-----------5-----------6-----------2-----3-----2-----------5-----------3-2-0-------------------
A -2-----------5-----------4-4-4-4-4-4-0-0-0-1-1-1-2-----------5-----------------3-2-0-------------
E -0-0-0-0-0-0-3-3-3-3-3-3-------------------------0-0-0-0-0-0-3-3-3-3-3-3-------------3-5-3-1-3-1-

Order

Riff 1 x 2
Riff 1A x 6
Riff 2 x 4
Riff 3A x 4
Riff 3 x 4
Riff 4 x 1
Riff 5 x 1
Riff 2 x 4
Riff 3 x 5
Riff 4 x 1
Riff 5 x 1
Solo over Riff 6 x 2
Solo over Riff 6A x 2
Solo over Riff 7 x 2
Riff 8 x 4
Riff 1 x 2
Riff 1A x 5
Riff 1B x 1



Important: The song above is NOT stored on the Chordie server. The original song is hosted at www.xguitar.com. Chordie works as a search engine and provides on-the-fly formatting. Chordie does not index songs against artists/composers will. To remove this song please click here.

This song is displayed as text-only. Transposing and tuning is only available for chordpro-songs.

Login - add to songbook

Rating click stars to rate

Layout
Accuracy

SHARE PAGE  




You need to log in to post comments