Guitar Tabs, Chords and Lyrics
Major upgrade!! After one year development the new version of Chordie is now online! Please give feedback.


Material World Paranoia  Kreator

KREATOR - MATERIAL WORLD PARANOIA
(Coma Of Souls, 1990)
Key
= after note = vibrato
^ after note = heavy vibrato
\ = slide down
/ = slide up
+ = tap
h = hammer
p = pull
n = natural harmonic
s = pinching harmonic (squeal)
* = tremolo pick
t = trill
b = bend
|-3-| = triplet
n number above the tab = play the first part then the first finishing part
play the first part a second time and then play the second finishing part
etc.
Riff 1A
 
 E ---------------------------------------------------------------------------
 B ---------------------------------------------------------------------------
 G ----------------------5-----------------2----------------------------------
 D ----4-----------------5-----------------2-----------------2---------5------
 A ----4-----------------3-----------------0-----------------2---------5------
 E -0--2--------------0-----------------0-----------------0--0------0--3------

Riff 1B
 
 E -------------------------------------------------------------------------
 B -------------------------------------------------------------------------
 G ----------------------5-----------------2--------------------------------
 D ----4-----------------5-----------------2--------------2--------5--------
 A ----4-----------------3-----------------0--------------2--------5--------
 E -0--2--------------0-----------------0-----------------0--------3--------

Riff 1
 
 E ----------------------------------------------------------------------
 B ----------------------------------------------------------------------
 G ------------------5----------------2----------------------------------
 D -4----------------5----------------2----------------2--------5--------
 A -4----------------3----------------0----------------2--------5--------
 E -2--------------------------------------------------0--------3--------

Riff 1C
 
 E ----------------------------------------------------------------
 B ----------------------------------------------------------------
 G ------------------5----------------2----------------------------
 D -4----------------5----------------2----------------4--5--7--9--
 A -4----------------3----------------0----------------4--5--7--9--
 E -2--------------------------------------------------2--3--5--7--

Fill 1
 
 E ------
 B ------
 G ------

[D] [-4----]  
[A] [-4----]  
[E] [-2----]  
Riff 2
 
 E ---------------------------------------------------------------------------
 B ---------------------------------------------------------------------------
 G ---------5-4-----5-6-------------5----------5----------5----------5--2--4--
 D -2-------5-4-----5-6-------------5----------5----------5----------5--2--4--
 A -2-------3-2-0-0-3-4-0-0-1-------3-33-33-33-3-33-33-33-3-33-33-33-3--0--2--
 E -0-0-0-0-------------------3-2-0-------------------------------------------

Riff 2A
 
 E -----------------------------------------------------------------------------------------
 B -----------------------------------------------------------------------------------------
 G ---------5-4-----5-6-------------5----------5----------5----------5----------5--4--2-----
 D -2-------5-4-----5-6-------------5----------5----------5----------5----------5--4--2--5--
 A -2-------3-2-0-0-3-4-0-0-1-------3-33-33-33-3-33-33-33-3-33-33-33-3-33-33-33-3--2--0--5--
 E -0-0-0-0-------------------3-2-0------------------------------------------------------3--

Riff 3
 
 E -----------------------------------------------------------------------------------------
 B -----------------------------------------------------------------------------------------
 G ---------3---------------------3---------------------3---------------------3--5---3------
 D -2---5---3--3---2---3--2---5---3--3---2---3--2---5---3--3---2---3--2---5---3--5---3---5--
 A -2---5---1--3---2---3--2---5---1--3---2---3--2---5---1--3---2---3--2---5---1--3---1---5--
 E -0---3------1---0---1--0---3------1---0---1--0---3------1---0---1--0---3--------------3--

Riff 3A
 
 E -------------------------------------------------------------------------------------------------
 B -------------------------------------------------------------------------------------------------
 G -------------------------------------------------------------------------------------------------
 D -------------------------------------------------------------------------------------------------
 A -------------------11-11-------------------------------------------11-11-------------------------
 E -00-00-00-33-33-33-------11-11-11-00-00-00-11-11-00-00-00-33-33-33-------11-11-11-00-00-00-11-11-
 E ------------------------------------------------------------------------------------
 B ------------------------------------------------------------------------------------
 G -------------------------------------------------------------------------5---3------
 D -------------------------------------------------------------------------5---3---5--
 A -------------------11-11-------------------------------------------11-11-3---1---5--
 E -00-00-00-33-33-33-------11-11-11-00-00-00-11-11-00-00-00-33-33-33---------------3--

Riff 3B
 
 E -------------------------------------------------------------------------------------------------
 B -------------------------------------------------------------------------------------------------
 G -------------------------------------------------------------------------------------------------
 D -------------------------------------------------------------------------------------------------
 A -------------------11-11-------------------------------------------11-11-------------------------
 E -00-00-00-33-33-33-------11-11-11-00-00-00-11-11-00-00-00-33-33-33-------11-11-11-00-00-00-11-11-
 E -------------------------------------------------------------------------------------------------
 B -------------------------------------------------------------------------------------------------
 G -------------------------------------------------------------------------------------------------
 D -------------------------------------------------------------------------------------------------
 A -------------------11-11-------------------------------------------11-11-33-33-33-11-11-11-------
 E -00-00-00-33-33-33-------11-11-11-00-00-00-11-11-00-00-00-33-33-33-------------------------33-33-

Riff 3C
 
 E ----------------------------------------------------------------------------
 B ----------------------------------------------------------------------------
 G -5------5------7------7-----------------------------------------------------
 D -5------5------7------7--5--------------------------------------------------
 A -3--3-3-3--3-3-5--5-5-5--5--------------------11-11-------------------------
 E -------------------------3--00-00-00-33-33-33-------11-11-11-00-00-00-11-11-
 E -------------------------------------------------
 B -------------------------------------------------
 G -------------------------------------------------
 D -------------------------------------------------
 A -------------------11-11-------------------------
 E -00-00-00-33-33-33-------11-11-11-00-00-00-11-11-

Riff 3D
 
 E ---------------------------------------------------------
 B ---------------------------------------------------------
 G -5------5------7------7----------------------------------
 D -5------5------7------7------7------7------5------3------
 A -3--3-3-3--3-3-5--5-5-5--5-5-7------7------5------3------
 E -----------------------------5--5-5-5--5-5-3--3-3-1--1-1-

Riff 4
 
 E ----------------------------------------------------------------
 B ----------------------------------------------------------------
 G -6-6-6--2--2--5-------5-------5----6-6-6--2--2--2---------------
 D -6-6-6--2--2--5-------5-------5----6-6-6--2--2--2-----2-----5---
 A -4-4-4--0--0--3-33-33-3-33-33-3-33-4-4-4--0--0--0-----2-----5---
 E --------------------------------------------------0-0-0-0-0-3-0-

Riff 5
 
 E ----------------------------------------------------
 B ----------------------------------------------------
 G -7-9-----9-----7--7-9--12--4-5-----5-----4--4-2-----
 D -7-9-----9-----7--7-9--12--4-5-----5-----4--4-2--5--
 A -5-7-----7-----5--5-7--10--2-3-----3-----2--2-0--5--
 E -----0-0-----------------------0-0---------------3--

Riff 6
 
 E -------------------------------------------------------
 B -------------------------------------------------------
 G -----------------------------5------5------7------8----
 D -5------5------7------7------5------5------7------8----
 A -5------5------7------7------3--3-3-3--3-3-5--5-5-6----
 E -3--3-3-3--3-3-5--5-5-5--5-5---------------------------

Riff 7
 
 E ------------------------------------------------------------------
 B ------------------------------------------------------------------
 G ------------------------------------------------------------------
 D ------------------------------------------------------------------
 A -5-7-----8-5-----2-3-------------5-7-----10-7-----8-5-----3-5-----
 E -----0-0-----0-0-----0-0-0-0-0-0-----0-0------0-0-----0-0-----0-0-

Riff 7A
 
 E ---------------------------------------------------------------------------------------------
 B ---------------------------------------------------------------------------------------------
 G ------------------------------------------------------------------5------5------7------7-----
 D ------------------------------------------------------------------5------5------7------7--5--
 A -5-7-----8-5-----2-3-------------5-7-----10-7-----8-5-----3-5-----3--3-3-3--3-3-5--5-5-5--5--
 E -----0-0-----0-0-----0-0-0-0-0-0-----0-0------0-0-----0-0-----0-0-------------------------3--

Riff 7B
 
 E --------------------------------------------------------------------------------------------------------------------------
 B --------------------------------------------------------------------------------------------------------------------------
 G ------------------------------------------------------------------5------5------7------7----------------------------------
 D ------------------------------------------------------------------5------5------7------7------7------7------5------3------
 A -5-7-----8-5-----2-3-------------5-7-----10-7-----8-5-----3-5-----3--3-3-3--3-3-5--5-5-5--5-5-7------7------5------3------
 E -----0-0-----0-0-----0-0-0-0-0-0-----0-0------0-0-----0-0-----0-0-----------------------------5--5-5-5--5-5-3--3-3-1--1-1-

Riff 7C
 
 E -------------------------------------------------------------- ---------------------
 B -------------------------------------------------------------- ---------------------
 G -------------------------------------------------------------- -7-9-----------------
 D -------------------------------------------------------------- -7-9-9--7--5--2-3-2--
 A -5-7-----8-5-----2-3-------------5-7-----10-7-----8-5-----3-5- -5-7-9--7--5--2-3-2--
 E -----0-0-----0-0-----0-0-0-0-0-0-----0-0------0-0-----0-0----- -----7--5--3--0-1-0--

Order
Riff 1A x 2
Riff 1B x 1
Riff 1 x 1
Solo over Riff 1 x 3
Fill 1 x 1
Riff 2 x 5
Riff 2A x 1
Riff 3 x 1
Riff 3A x 1
Riff 4 x 2
Riff 1 x 3
Riff 1C x 1
Riff 2 x 1
Riff 2A x 1
Riff 3 x 1
Riff 3A x 1
Riff 4 x 2
Riff 1 x 4
Riff 5 x 6
Riff 6A x 1
Solo over Riff 3B x 2
Solo over Riff 3C x 2
Solo over Riff 3D x 1
Riff 7 x 1
Riff 7A x 2
Riff 7B x 1
Riff 7 x 3
Riff 7C x 1
Tabbed by Radiohater 2003

Important: The song above is NOT stored on the Chordie server. The original song is hosted at www.xguitar.com. Chordie works as a search engine and provides on-the-fly formatting. Chordie does not index songs against artists'/composers' will. To remove this song please click here.

Text color:
Chord color:
Chord grids: 
Font size:    
Page size: 

A D E
Rate #1 of 2 versions

Login - add to songbook

SHARE PAGE  




You need to log in to post comments