Guitar Tabs, Chords and Lyrics


Karmic Wheel    Kreator



KARMIC WHEEL
By KREATOR
From the album RENEWAL

Transcription by Socio Path @ SpOaCtIhO@aol.com

( ~ ) - tremelo
( \ ) or ( / ) - slide
( h ) - hammer on
( p ) - pull off
( pm ) - palm mute
( * ) - note palm muted
( x ) - percussive (dead) note


B-tuning (B, F#, D, A, E, B) - (Carcass tuning)

                                				Riff A1
|--------------------------------------------|------------------------------|
|--------------------------------------------|------------------------------|
|-------------------------------------------o|--5------3------5------------o|
|--3---6--5--1----4~-----3---6--5--1----8~--o|--3------3------3------3-----o|
|--3---6--5--1------------3---6--5--1--------|--3------1------3------1------|
|--------------------------------------------|-----------------------1------|

     Riff A2
|-----------------|---------------------------|
|-----------------|---------------------------|
|--7-----5-----3--|--5------3------5---------o|
|--5-----3-----1--|--3------3------3------3--o|
|--5-----3-----1--|--3------1------3------3---|
|-----------------|-----------------------1---|

                   		       Riff B

(two guitars)                         (3x)		(repeat all)
|-----------------------------------|------------------------|
|-----------------------------------|------------------------|
|-------11---10-11-10--------9------|--7----9----11--12--11--|
|--9-------------h--p-----10-----9--|--5----7----9---10---9--|
|--------9-----8--9--8---------7----|------------------------|
|--7-------------h--p------8-----7--|------------------------|

		Riff C
|----------------------------------------------|
|----------------------------------------------|
|--7--7--x--x--5--7--8--7----7-7-7-7-7-7-7-7--o|
|--5--5--x--x--3--5--6--5----5-5-5-5-5-5-5-5--o|
|----------------------------*-*-*-*-*-*-*-*---|
|------------------------------pm--------------|

|--------------------------------------|-------------------------------|
|-------------------5--4---------------|-------------------------------|
|--------5--4-------------0---2--/-4--o|-------------------------------|
|--3----------------------------------o|--0----2----3----5----7----8~--|


Important: The song above is NOT stored on the Chordie server. The original song is hosted at www.xguitar.com. Chordie works as a search engine and provides on-the-fly formatting. Chordie does not index songs against artists'/composers' will. To remove this song please click here.

This song is displayed as text-only. Transposing and tuning is only available for chordpro-songs.

Login - add to songbook

Rating click stars to rate

Layout
Accuracy

SHARE PAGE  




You need to log in to post comments