Guitar Tabs, Chords and Lyrics


Aeon   Lacuna Coil

   [4/4] Gtr I
Q +E E E E Q +E E E E E E E E
||------------------|-------------------|
||o-----------------|-------------------|
||------------------|-------------------|
||---------------0--|-(0)-------0-------|
||o----------7s9----|-------5s7---0-----|
||--0--(0)-0--------|-----7---------5s7-|



  [Esus2]Q  +E  E E E Q    +E  [Dsus2/B]E E E E E E E
|-----------------|---------------------||
|-----------------|--------------------o||
|-----------------|---------------------||
|--------------0--|-(0)-------0---------||
|----------7s9----|-------5s7---0------o||
|-0--(0)-0--------|-----7---------5s7---||



    [Esus2]Gtr I                           [Dsus2/B]
Q +E E E E Q +E E E E E E E E
||---------------------------|----------------------|
||o--------------------------|----------------------|
||---------------------------|----------------------|
||----------------------0----|--(0)---------0-------|
||o--------------7s=9--------|--------5s=7----0-----|
||---0-----(0)-0-------------|------7-----------5s7-|

|
| Gtr II
| E E E E E E E E E E E E E E E E
||---------------------------|----------------------|
||o--------------------------|----------------------|
||--11-11-(11)-9-9-(9)-------|----------------------|
||---------------------12-12-|-(12)-9-9-(9)-9-9-9-9-|
||o--------------------------|----------------------|
||---------------------------|----------------------|



  [Esus2]Q     +E   E     E   E   Q       +E  [Dsus2/B]E E E   E   E  E  E
|-------------------------------|--------------------------|
|-------------------------------|--------------------------|
|-------------------------------|--------------------------|
|--------------------------0----|--(0)---------0-----------|
|------------------7s==9--------|--------5s7-------0-------|
|-0-----(0)--0------------------|------7--------------5s=7-|

|
| E E E E a E +E E E +H +E E E E
|-------------------------------|--------------------------|
|-------------------------------|--------------------------|
|-------------------------------|--------------------------|
|-9s11-(11)-11-11h12-(12)-11-11-|-(11)-------(11)----------|
|-------------------------------|-----------------11-11-11-|
|-------------------------------|--------------------------|



  [Esus2] Q   +E  E E E Q       +E  [Dsus2/B]E E E E E E E
|----------------------|-------------------|
|----------------------|-------------------|
|----------------------|-------------------|
|----------------0-----|-(0)-------0-------|
|------------7s9-------|-------5s7---0-----|
|--0---(0)-0-----------|-----7---------5s7-|

|
| E E E E E E E E +W
|----------------------|-------------------|
|----------------------|-------------------|
|----------------------|-------------------|
|----------------------|-------------------|
|-11s9-(9)-7-7s5-5-(5)-|-(5)---------------|
|----------------------|-------------------|



  [Esus2] Q   +E  E E E Q    +E  [Dsus2/B]E E E E E E E
|-------------------|--------------------||
|-------------------|-------------------o||
|-------------------|--------------------||
|----------------0--|-(0)-------0--------||
|------------7s9----|-------5s7---0-----o||
|--0---(0)-0--------|-----7---------5s7--||

|
| +W +W
|-------------------|--------------------||
|-------------------|-------------------o||
|-------------------|--------------------||
|-------------------|--------------------||
|-(5)---------------|-(5)---------------o||
|-------------------|--------------------||



  E [Dsus2/B]E E E E E E E   E [Dsus2/B]E E E E E E E   E [Dsus2/B]E E E E E E E   W
|-----------------|-----------------|-----------------|------|
|-----------------|-----------------|-----------------|------|
|-----------------|-----------------|-----------------|------|
|---------0-------|---------0-------|---------0-------|------|
|-----5s7---0-----|-----5s7---0-----|-----5s7---0-----|------|
|---7---------5s7-|---7---------5s7-|---7---------5s7-|------|



Vocals Enter
  [C/D]Gtr I                    [C/D]
   [E]  [E]  E]    [E]  E]     [E]   [E]  [E]    E]    [E]  [E]  [E]  [E]  [E]  [E]  [E]                                                  
|------------------------|-----------0-------|
|-^0h1-(1)-------(1)---0-|-(0)---1-----1---1-|
|-^x-------0-(0)-----0---|-----0---0-----0---|
|-^0---------------------|-------------------|
|------------------------|-------------------|
|------------------------|-------------------|



  [C/D]Q  +E  E +E   E  E E   [C/D]+E  E E E E E E E
|----------------------|-----------0-------|
|-0--(0)-------(1)---0-|-(0)---1-----1---1-|
|--------0-(0)-----0---|-----0---0-----0---|
|----------------------|-------------------|
|----------------------|-------------------|
|----------------------|-------------------|



   [E]  [E]  E]    [E]  E]     [E]   [E]  [E]    E]    [E]  [E]  [E]  [E]  [E]  [E]  [E]                                                  
|------------------------|-----------0-------|
|-^0h1-(1)-------(1)---0-|-(0)---1-----1---1-|
|-^x-------0-(0)-----0---|-----0---0-----0---|
|-^0---------------------|-------------------|
|------------------------|-------------------|
|------------------------|-------------------|

   [E]  [E]  E]    [E]  E]     [E]   [E]  [E]    E]    [E]  [E]  [E]  [E]  [E]  [E]  [E]                                                  
|------------------------|-----------0-------|
|-^0h1-(1)-------(1)---0-|-(0)---1-----1---1-|
|-^x-------0-(0)-----0---|-----0---0-----0---|
|-^0---------------------|-------------------|
|------------------------|-------------------|
|------------------------|-------------------|

  [Esus2]Gtr I                           [Dsus2/B]
Q +E E E E Q +E E E E E E E E
|--------------------------|----------------------|
|--------------------------|----------------------|
|--------------------------|----------------------|
|---------------------0----|--(0)---------0-------|
|--------------7s=9--------|--------5s=7----0-----|
|--0-----(0)-0-------------|------7-----------5s7-|

|
| Gtr II
| E E E E E E E E E E E E E E E E
|--------------------------|----------------------|
|--------------------------|----------------------|
|-11-11-(11)-9-9-(9)-------|----------------------|
|--------------------12-12-|-(12)-9-9-(9)-9-9-9-9-|
|--------------------------|----------------------|
|--------------------------|----------------------|



  [Esus2]Q     +E   E     E   E   Q       +E  [Dsus2/B]E E E   E   E  E  E
|-------------------------------|--------------------------|
|-------------------------------|--------------------------|
|-------------------------------|--------------------------|
|--------------------------0----|--(0)---------0-----------|
|------------------7s==9--------|--------5s7-------0-------|
|-0-----(0)--0------------------|------7--------------5s=7-|

|
| E E E E a E +E E E +H +E E E E
|-------------------------------|--------------------------|
|-------------------------------|--------------------------|
|-------------------------------|--------------------------|
|-9s11-(11)-11-11h12-(12)-11-11-|-(11)-------(11)----------|
|-------------------------------|-----------------11-11-11-|
|-------------------------------|--------------------------|



  [Esus2] Q   +E  E E E Q       +E  [Dsus2/B]E E E E E E E
|----------------------|-------------------|
|----------------------|-------------------|
|----------------------|-------------------|
|----------------0-----|-(0)-------0-------|
|------------7s9-------|-------5s7---0-----|
|--0---(0)-0-----------|-----7---------5s7-|

|
| E E E E E E E E +W
|----------------------|-------------------|
|----------------------|-------------------|
|----------------------|-------------------|
|----------------------|-------------------|
|-11s9-(9)-7-7s5-5-(5)-|-(5)---------------|
|----------------------|-------------------|



  [Esus2] Q   +E  E E E Q    +E  [Dsus2/B]E E E E E E E
|-------------------|-------------------|
|-------------------|-------------------|
|-------------------|-------------------|
|----------------0--|-(0)-------0-------|
|------------7s9----|-------5s7---0-----|
|--0---(0)-0--------|-----7---------5s7-|

|
| +W +W
|-------------------|-------------------|
|-------------------|-------------------|
|-------------------|-------------------|
|-------------------|-------------------|
|-(5)---------------|-(5)---------------|
|-------------------|-------------------|



  [Dsus2/B]Gtr I                    [C/D]
   [E]  [E]  E]    [E]  E]     [E]   [E]  [E]    E]    [E]  [E]  [E]  [E]  [E]  [E]  [E]                                                  
|------------------------|-----------0-------|
|-^0h1-(1)-------(1)---0-|-(0)---1-----1---1-|
|-^x-------0-(0)-----0---|-----0---0-----0---|
|-^0---------------------|-------------------|
|------------------------|-------------------|
|------------------------|-------------------|

   [E]  [E]  E]    [E]  E]     [E]   [E]  [E]    E]    [E]  [E]  [E]  [E]  [E]  [E]  [E]                                                  
|------------------------|-----------0-------|
|-^0h1-(1)-------(1)---0-|-(0)---1-----1---1-|
|-^x-------0-(0)-----0---|-----0---0-----0---|
|-^0---------------------|-------------------|
|------------------------|-------------------|
|------------------------|-------------------|

   [E]  [E]  E]    [E]  E]     [E]   [E]  [E]    E]    [E]  [E]  [E]  [E]  [E]  [E]  [E]                                                  
|------------------------|-----------0-------|
|-^0h1-(1)-------(1)---0-|-(0)---1-----1---1-|
|-^x-------0-(0)-----0---|-----0---0-----0---|
|-^0---------------------|-------------------|
|------------------------|-------------------|
|------------------------|-------------------|

   [E]  [E]  E]    [E]  E]     [E]   [E]  [E]    E]    [E]  [E]  [E]  [E]  [E]  [E]  [E]                                                  
|------------------------|-----------0-------|
|-^0h1-(1)-------(1)---0-|-(0)---1-----1---1-|
|-^x-------0-(0)-----0---|-----0---0-----0---|
|-^0---------------------|-------------------|
|------------------------|-------------------|
|------------------------|-------------------|

Outro
    [Esus2]Q  +E  E E E Q    +E  [Dsus2/B]E E E E E E E
||------------------|-------------------|
||o-----------------|-------------------|
||------------------|-------------------|
||---------------0--|-(0)-------0-------|
||o----------7s9----|-------5s7---0-----|
||--0--(0)-0--------|-----7---------5s7-|



  [Esus2]Q  +E  E E E Q    +E  [Dsus2/B]E E E E E E E
|-----------------|---------------------||
|-----------------|--------------------o||
|-----------------|---------------------||
|--------------0--|-(0)-------0---------||
|----------7s9----|-------5s7---0------o||
|-0--(0)-0--------|-----7---------5s7---||



W +W +W +W
|----------|------------|------------|--------*|
|----------|------------|------------|--------*|
|----------|------------|------------|--------*|
|----------|------------|------------|--------*|
|----------|------------|------------|--------*|
|-0--------|-(0)--------|-(0)--------|-(0)----*|



Duration Legend
---------------
W - whole; H - half; Q - quarter; E - 8th; S - 16th; T - 32nd; X - 64th; a - acciaccatura

+ - note tied to previous; . - note dotted; .. - note double dotted
Uncapitalized letters represent notes that are staccato (1/2 duration)
Irregular groupings are notated above the duration line
Duration letters will always appear directly above the note/fret number it represents the
duration for. Duration letters with no fret number below them represent rests. Multi-
bar rests are notated in the form Wxn, where n is the number of bars to rest for. Low
melody durations appear below the staff

Tablature Legend
----------------

h - hammer-on
p - pull-off
b - bend
pb - pre-bend
r - bend release (if no number after the r, then release immediately)
/\ - slide into or out of (from/to "nowhere")
s - legato slide
S - shift slide
- natural harmonic
(n) - artificial harmonic
n(n) - tapped harmonic
~ - vibrato
tr - trill
T - tap
TP - trem. picking
PM - palm muting
\n/ - tremolo bar dip; n = amount to dip
\n - tremolo bar down
n/ - tremolo bar up
/n\ - tremolo bar inverted dip
= - hold bend; also acts as connecting device for hammers/pulls
<> - volume swell (louder/softer)
x - on rhythm slash represents muted slash
o - on rhythm slash represents single note slash

Misc Legend
-----------

| - bar
|| - double bar
||o - repeat start
o|| - repeat end
*| - double bar (ending)
: - bar (freetime)
$ - Segno
& - Coda
Tempo markers - = BPM(8/16=s8/s16), where s8 = swing 8ths, s16 = swing 16ths


***************************************************************************************
* Generated using Power Tab Editor by Brad Larsen - http://powertab.guitarnetwork.org *
***************************************************************************************

Important: The song above is NOT stored on the Chordie server. The original song is hosted at www.xguitar.com. Chordie works as a search engine and provides on-the-fly formatting. Chordie does not index songs against artists'/composers' will. To remove this song please click here.

Text color:
Chord color:
Chord grids: 
Font size:    
Page size: 

C/D Dsus2/B E Esus2
variations - click chord images

Login - add to songbook

Transpose chords

Tuning

Rating click stars to rate

Layout
Accuracy

SHARE PAGE  




You need to log in to post comments