Chordie logo

E Dagger   Lagwagon



Lagwagon - E Dagger
Submitted By: For Amusement Only
EMail: boomer_delonge@hotmail.com
Blaze - 2003

palm muted(no palm mute on last chord) verse 1
e---------------------------------------------------------------------
b---------------------------------------------------------------------
g---5-5-5-5-5-5-5-5-5-------------------------------------------------
d---5-5-5-5-5-5-5-5-5--3-3-3-3-3-3--6-6-6-6-6--8-8-8-8--10-10-10-10---
a---3-3-3-3-3-3-3-3-3--3-3-3-3-3-3--6-6-6-6-6--8-8-8-8--10-10-10-10---x2
e----------------------1-1-1-1-1-1--4-4-4-4-4--6-6-6-6--8--8--8--8----
    . . . . . . . . .  . . . . . .  . . . . .  . . . .  .  .  .

verse 2
e-----------------------------------------------------------------------
b-----------------------------------------------------------------------
g---5-5-5-5-5-5-5-5-5---------------------------------------------------
d---5-5-5-5-5-5-5-5-5--7-7-7-7-7-7-6-6-6-6-6-8-8-8-8-10-10-10-10--------
a---3-3-3-3-3-3-3-5-3--7-7-7-7-7-7-6-6-6-6-6-8-8-8-8-10-10-10-10--------x2
e----------------------5-5-5-5-5-5-4-4-4-4-4-6-6-6-6-8--8--8--8---------

chorus
e-------------------------------------------------------
b-------------------------------------------------------
g-----------5~------------------------------------------
d---3~--5~--5~--2~-3-3-3-3-3-3-3-3-3-3-5-5-5-5-5-5------
a---3~--5~--3~--2~-3-3-3-3-3-3-3-3-3-3-5-5-5-5-5-5------
e---1~--3~------0~-1-1-1-1-1-1-1-1-1-1-3-3-3-3-3-3------

e------------------------------------------------------
b------------------------------------------------------
g----55555x5-------------------------------------------
d----55555x5---33333x3-66666-88888-1010101010----------
a----33333x3---33333x3-66666-88888-1010101010----------
e--------------11111x1-44444-66666-8-8-8-8-8-----------

e----------------------------------------------------
b----------------------------------------------------
g----55555x5-----------------------------------------
d----55555x5--------7777x-66666-88888-1010101010-----
a----33333x3--8-7-5-7777x-66666-88888-1010101010-----
e-------------------5555x-44444-66666-8-8-8-8-8------

repeat chorus palm mute it but let go when u get to the F chord



e----------------------------------------------------------------
b----------------------------------------------------------------
g------55555-77777-------5555xxx--555555-77777-------55555-------
d----3-55555-77777-33333-5555xxx--555555-77777-33333-55555-------
a----3-33333-55555-33333-3333xxx--333333-55555-33333-33333-------
e----1-------------11111-----------------------11111-------------

e------15~-17-14-15-13-13-12---15~-17-14-15-13-13-12---
b------------------------------------------------------
g------------------------------------------------------
d------------------------------------------------------
a------------------------------------------------------
e------------------------------------------------------

when guitar 2 plays second "15"play this on guitar one

e--------------------------3-5-3-6~---------------------
b-------------------------------------------------------
g------------5~-----------------------------------------
d----3~--5~--5~-----------------------------------------

a----3~--5~--3~-----------------------------------------


Important: The song above is NOT stored on the Chordie server. The original song is hosted at www.xguitar.com. Chordie works as a search engine and provides on-the-fly formatting. Chordie does not index songs against artists/composers will. To remove this song please click here.

This song is displayed as text-only. Transposing and tuning is only available for chordpro-songs.

Login - add to songbook

Rating click stars to rate

Layout
Accuracy

SHARE PAGE  



You need to log in to post comments