Guitar Tabs, Chords and Lyrics


Failure   Lagwagon



----------------------------------------------------------------
Lagwagon - failure
----------------------------------------------------------------

Intro:
                x 4     on second time, Gtr. 2 play this:
e|-4------4--------|   |----------------|
B|-4------4--------|   |----------------|
G|-5------4-----4--|   |----------------|
D|-4------4---4----|   |--6-6-6---------|
A|-6------6--------|   |--4-4-4---------|
E|-4------4--------|   |----------------|
Verse : Gtr. 2 play high notes in brackets
e|---------------(13)(14)------------------------|
B|-----------------------------------------------|
G|-6-6-6-6-6-6-------------------------3-3-3-3-3-|
D|-6-6-6-6-6-6-6-6-6-6-6-6-4-4-4-4-4-4-3-3-3-3-3-|
A|-4-4-4-4-4-4-6-6-6-6-6-6-4-4-4-4-4-4-1-1-1-1-1-|
E|-------------4-4-4-4-4-4-2-2-2-2-2-2-----------|

                           p.m.^   ^^^^   ^^^^  ^^^^^^^^ 
e|------------------------------2------2------2----------|
B|------------------------------2------2------2----------|
G|-6-6-6-6-6-6------------------3------3------3----------|
D|-6-6-6-6-6-6-6-6-6-6-6-6------4------4------4----------|
A|-4-4-4-4-4-4-6-6-6-6-6-6--4-4-4--4-4-4--4-4-4--9-9-9-7-|
E|-------------4-4-4-4-4-4--2-2-2--2-2-2--2-2-2--7-7-7-5-|

e|------------2--------|
B|------------2--------|
G|-------8----3--------|
D|-8-----8----4-----6--|
A|-8-----6----4-----6--|
E|-6----------2-----4--|

Begin Verse Riff
e|-------------------------2-2-2-2-2-2-----------|
B|-------------------------2-2-2-2-2-2-----------|
G|-6-6-6-6-6-6-------------3-3-3-3-3-3-3-3-3-3-3-|
D|-6-6-6-6-6-6-6-6-6-6-6-6-4-4-4-4-4-4-3-3-3-3-3-|
A|-4-4-4-4-4-4-6-6-6-6-6-6-4-4-4-4-4-4-1-1-1-1-1-|
E|-------------4-4-4-4-4-4-2-2-2-2-2-2-----------|
                           p.m.^   ^^^^   ^^^^  ^^^^^^^^ 
e|------------------------------2------2------2----------|
B|------------------------------2------2------2----------|
G|-6-6-6-6-6-6------------------3------3------3----------|
D|-6-6-6-6-6-6-6-6-6-6-6-6------4------4------4----------|
A|-4-4-4-4-4-4-6-6-6-6-6-6--4-4-4--4-4-4--4-4-4--9-9-9-7-|
E|-------------4-4-4-4-4-4--2-2-2--2-2-2--2-2-2--7-7-7-5-|
                   End Verse Riff
e|------------2--------|
B|------------2--------|
G|-------8----3--------|
D|-8-----8----4-----6--|
A|-8-----6----4-----6--|
E|-6----------2-----4--|
Chorus :
e||------------------2------------||-------------|
B||------------------2------------||-------------|
G||*-6---------------3-----8-8---*||-6------6----|
D||--6-6-6--8-8-6-6--4-8-8-8-8-6--||-6----6-6----|
A||*-4-6-6--8-8-6-6--4-8-8-6-6-6-*||-4----6-4----|
E||----4-4--6-6-4-4--2-6-6-----4--||------4------|

Repeat the Verse Riff (the last three lines)
e|---------------------------------------------------------|
B|---------------------------------------------------------|
G|-6-6-6-6------------------------------------8-8-8--------|
D|-6-6-6-6-6-6-6--8-8-8-6-6-6-6-4-4-4-4-8-8-8-8-8-8-6-6-6--|
A|-4-4-4-4-6-6-6--8-8-8-6-6-6-6-4-4-4-4-8-8-8-6-6-6-6-6-6--|
E|---------4-4-4--6-6-6-4-4-4-4-2-2-2-2-6-6-6-------4-4-4--|

  p.m.^^^^^^^^^^^^^^^^^^^^^^^^^
e|----------------------------------------------------------------|
B|----------------------------------------------------------------|
G|-6-6-6-6--------------------------------8-----6---------------8-|
D|-6-6-6-6-6-6-6-6-8-8-8-8-8-8-8-8--4-----8-----6---6-----4-----8-|
A|-4-4-4-4-6-6-6-6-8-8-8-8-8-8-8-8--4-----6-----4---6-----4-----6-|
E|---------4-4-4-4-6-6-6-6-6-6-6-6--2---------------4-----2-------|
                                      p.m.^^^^^^^^^^^^^^^^^^^^^^
e|---------------------------------------------------------------|
B|---------------------------------------------------------------|
G|-6----------------8-----6--------------------------------------|
D|-6-----6----4-----8-----6-----6------4-4-4-4-4-4-6-6-6-6-6-6-6-|
A|-4-----6----4-----6-----4-----6------4-4-4-4-4-4-6-6-6-6-6-6-6-|
E|-------4----2-----------------4------2-2-2-2-2-2-4-4-4-4-4-4-4-|

Gtr. 2 play this over the above line :
e|---------------------------------------------------------|
B|---------------------------------------------------------|
G|---------------------------------------------------------|
D|-3-4-3-1~~--4-6-4-6~~~--3-4-3-1--------4-3-1----3-1------|
A|--------------------------------4-3----------4------4-3--|
E|---------------------------------------------------------|
Guitar Solo: 

Gtr. 1 :
e|------------------------------------------------4h5p4h5p4h5p4h5--|
B|-----------------6---6----------6-7-6----------------------------|
G|-6---6-8~~---6h8---6---8~~--6h8-------8-6-5-6~~------------------|
D|---6-------------------------------------------------------------|
A|-----------------------------------------------------------------|
E|-----------------------------------------------------------------|
                                jealousy......
e|------------------------------------|
B|----------------6-7-6---------------|
G|-6---6-8~~--6h8-------8~~--6-8-6~~--|
D|---6--------------------------------|
A|------------------------------------|
E|------------------------------------|

Gtr. 2 - play the verse Riff twice, the second time with singing

Last Chorus:

Gtr. 1 play this, whenever appropriate, so listen to the song

e|----------------------------|
B|-----------6------------6---|
G|--6-6--6h8----6-6-6-6h8-----|
D|----------------------------|
A|----------------------------|
E|----------------------------|
Gtr. 2 play this:

e||------------------2------------||-----------------------------------|
B||------------------2------------||-----------------------------------|
G||*-6---------------3-----8-8---*||-6--------------11-11-11-10--8-8-5-|
D||--6-6-6--8-8-6-6--4-8-8-8-8-6--||-6-6-6--8-8-6-6--------------8-8-5-|
A||*-4-6-6--8-8-6-6--4-8-8-6-6-6-*||-4-6-6--8-8-6-6--9--9--9--8--6-6-3-|
E||----4-4--6-6-4-4--2-6-6-----4--||---4-4--6-6-4-4--------------------|
  p.m.^^^^^^^^^^^^^^^^^^^^^^^^^
e|---------------------------------||----------------------------------|
B|---------------------------------||----------------------------------|
G|-6-6-6-6-------------------------||*-----------8-8-8-8-8-6-6-6-6-6-6-|
D|-6-6-6-6-6-6-6-6-8-8-8-8-8-8-8-8-||--4-4-4-4-4-8-8-8-8-8-6-6-6-6-6-6-|
A|-4-4-4-4-6-6-6-6-8-8-8-8-8-8-8-8-||*-4-4-4-4-4-6-6-6-6-6-4-4-4-4-4-4-|
E|---------4-4-4-4-6-6-6-6-6-6-6-6-||--2-2-2-2-2-----------------------|
               x 3
e|--------------||---------------------------------------------------------|
B|--------------||---------------------------------------------------------|
G|-------------*||-------------------------6-----------6-------------------|
D|-6-6-6-6-6-6--||-4-4-4-4-4-4-6-6-6-6-6-6-6-hold---6--6---now-make-noise--|
A|-6-6-6-6-6-6-*||-4-4-4-4-4-4-6-6-6-6-6-6-4--------6--4-------------------|
E|-4-4-4-4-4-4--||-2-2-2-2-2-2-4-4-4-4-4-4----------4----------------------|

----------------------------------------------------------------


Important: The song above is NOT stored on the Chordie server. The original song is hosted at www.xguitar.com. Chordie works as a search engine and provides on-the-fly formatting. Chordie does not index songs against artists'/composers' will. To remove this song please click here.

This song is displayed as text-only. Transposing and tuning is only available for chordpro-songs.

Login - add to songbook

Rating click stars to rate

Layout
Accuracy

SHARE PAGE  




You need to log in to post comments