Chordie logo

One Thing To Live   Lagwagon



----------------------------------------------------------------
Lagwagon - one thing to live
----------------------------------------------------------------

Intro: (Acoustic)  play around with this...
                                                    x 3
e|-----7-7-----------------------4-4----------5-5-5---|
B|-----9-9-9-9------7-7----------6-6-6-6------5-5-5-5-|
G|---9-9-9-9-9------8-8-8-8--6-6-6-6-6-6------6-6-6-6-|
D|-9-9-9-9-9-9--9-9-9-9-9-9--6-6-6-6-6-6--7-7-7-7-7-7-|
A|-7-7-7-7-7-7--9-9-9-9-9-9--4-4-4-4-4-4--7-7-7-7-7-7-|
E|--------------7-7-7-7-7-7---------------5-5-5-5-5-5-|

e|-----5-5-5--------2-2--------4-4---------7------------5-5-5---|
B|-----5-5-5-5------4-4-4------6-6-6-------9-----9------5-5-5-5-|
G|-----6-6-6-6--4-4-4-4-4--6-6-6-6-6-6--9--9-----9------6-6-6-6-|
D|-7-7-7-7-7-7--4-4-4-4-4--6-6-6-6-6-6--9--9--9--8--7-7-7-7-7-7-|
A|-7-7-7-7-7-7--2-2-2-2-2--4-4-4-4-4-4--7--7--9--9--7-7-7-7-7-7-|
E|-5-5-5-5-5-5--------------------------------7--7--5-5-5-5-5-5-|

e|-----5-5-5--------2-2-2----------|
B|-----5-5-5-5------4-4-4-4--------|
G|-----6-6-6-6--4-4-4-4-4-4--9~~~--|
D|-7-7-7-7-7-7--4-4-4-4-4-4--9~~~--|
A|-7-7-7-7-7-7--2-2-2-2-2-2--7~~~--|
E|-5-5-5-5-5-5---------------------|

4
Distorted part (or the beginning, if you prefer)
                                                 x 2
e|-------------------------------------------------|
B|-------------------------------------------------|
G|-------------4-4-4-4-4-4-6-6-6-6-6-6-------------|
D|-2-2-2-2-2-2-4-4-4-4-4-4-6-6-6-6-6-6-7-7-7-7-7-7-|
A|-2-2-2-2-2-2-2-2-2-2-2-2-4-4-4-4-4-4-7-7-7-7-7-7-|
E|-0-0-0-0-0-0-------------------------5-5-5-5-5-5-|

e|-------------------------------------------------|
B|-------------------------------------------------|
G|-------------4-4-4-4-4-4-6-6-6-6-6-6-7-7-7-7-7-7-|
D|-2-2-2-2-2-2-4-4-4-4-4-4-6-6-6-6-6-6-7-7-7-7-7-7-|
A|-2-2-2-2-2-2-2-2-2-2-2-2-4-4-4-4-4-4-5-5-5-5-5-5-|
E|-0-0-0-0-0-0-------------------------------------|

Chorus? :

Gtr. 1 (Gtr. 2 play fills)

  fill 1                  fill 2 
e|------------------------|  |--------------------|
B|------------------------|  |--------------------|
G|-4-4-4-4-4-4-4-4-4-4-4--|  |--------------------|
D|------------------------|  |-------7-7-7-7------|
A|-2-2-2-2-2-2-2-2-2-2-2--|  |--------------------|
E|------------------------|  |-------5-5-5-5------|

  w/fill 1                                                      w/fill2
e|-----------------------------------------------------------------------|
B|-----------------------------------------------------------------------|
G|-2-2-2-2-2-2-4-4-4-4-4-4--6-6--6-6-6--9--------------------------------|
D|-2-2-2-2-2-2-4-4-4-4-4-4--6-6--6-6-6--9-6-6-6--7-7-7-7-7--2-2--6-6-6-6-|
A|-0-0-0-0-0-0-2-2-2-2-2-2--4-4--4-4-4--7-6-6-6--7-7-7-7-7--2-2--6-6-6-6-|
E|----------------------------------------4-4-4--5-5-5-5-5--0-0--4-4-4-4-|

                           p.m.^^^^^^^^^^^^^^^^^^^^^^^^^^              
e|------------------------------------------------------------------------|
B|------------------------------------------------------------------------|
G|--------------------------------------------------------7-7-7-7-7-7-7-7-|
D|-7-7-7-7-7--2-2--6-6-6-6--7-7-7-7-7-7-7-2-2-2-2-2-2-2-2-7-7-7-7-7-7-7-7-|
A|-7-7-7-7-7--2-2--6-6-6-6--7-7-7-7-7-7-7-2-2-2-2-2-2-2-2-5-5-5-5-5-5-5-5-|
E|-5-5-5-5-5--0-0--4-4-4-4--5-5-5-5-5-5-5-0-0-0-0-0-0-0-0-----------------|
                   w/fill 1
e|-------------------------------------------------------------------------|
B|-------------------------------------------------------------------------|
G|-6-6-6-6-6-6-6-6-------------------------------------------------------9~|
D|-6-6-6-6-6-6-6-6-7-7-7-7-7-7-7--2-2-6-6-6-6-7-7-7-7-7-7-7--7-7-9-9-9-9-9~|
A|-4-4-4-4-4-4-4-4-7-7-7-7-7-7-7--2-2-6-6-6-6-7-7-7-7-7-7-7--7-7-9-9-9-9-7~|
E|-----------------5-5-5-5-5-5-5--0-0-4-4-4-4-5-5-5-5-5-5-5--5-5-7-7-7-7---|
bass solo

then this:

e|-------------|------------------------------------|
B|-------------|------------------------------------|
G|-7-7--7--7-7-|----4-4--6-6----------4-4--6-6------|
D|-7-7--7--7-7-|-2--4-4--6-6--7-7--2--4-4--6-6--4-4-|
A|-5-5--5--5-5-|-2--2-2--4-4--7-7--2--2-2--4-4--4-4-|
E|-------------|-0------------5-5--0------------2-2-|

e|---------------------------------------------------------|
B|---------------------------------------------------------|
G|-------------------------------------------4-4-4-4-4-4-4-|
D|-6-6-6-6-6-6-6-7-7-7-7-7-7-7-4-4-4-4-4-4-4-4-4-4-4-4-4-4-|
A|-6-6-6-6-6-6-6-7-7-7-7-7-7-7-4-4-4-4-4-4-4-2-2-2-2-2-2-2-|
E|-4-4-4-4-4-4-4-5-5-5-5-5-5-5-2-2-2-2-2-2-2---------------|
Guitar Solo:

Gtr. 1:


e|--------------------------|----------------------------|
B|---9------9------9--------|---9------9------9----------|
G|-9---9--8---8--6---6------|-9---9--8---9--6---6-9~~~~--|
D|---------------------9~~~-|----------------------------|
A|--------------------------|----------------------------|
E|--------------------------|----------------------------|

e|------12--------12-----9-12-11-12~~~\-|------------------------|
B|-9-12----12--13----13----------12~~~\-|--????????????????????--|
G|--------------------------------------|------------------------|
D|--------------------------------------|--2-2-4-4-2--4-4-6-6-4--|
A|--------------------------------------|------------------------|
E|--------------------------------------|------------------------|

Gtr. 2 play this :  
                   x 3, but on third time strum the chords, don't hold
them
e|-------------------|
B|-------------------|   now immediately start on the chorus
G|------4------6-----|
D|-2----4------6---7-|
A|-2----2------4---7-|
E|-0---------------5-|
Last little riff:
e|--------------------|   
B|--------------------|
G|--------------------|
D|--------------------|
A|-7-6-4--------------|
E|-------7-5-4-2-4-0--|

----------------------------------------------------------------


Important: The song above is NOT stored on the Chordie server. The original song is hosted at www.xguitar.com. Chordie works as a search engine and provides on-the-fly formatting. Chordie does not index songs against artists/composers will. To remove this song please click here.

This song is displayed as text-only. Transposing and tuning is only available for chordpro-songs.

Login - add to songbook

Rating click stars to rate

Layout
Accuracy

SHARE PAGE  



You need to log in to post comments