Chordie logo

Razor Burn   Lagwagon



-------------------------------------------------------------------------------------------------------------------
                           RAZOR BURN - Lagwagon
-------------------------------------------------------------------------------------------------------------------

By: Rambozo

e-|----------------------------------------------------
B-|----------------------------------------------------
G-|----------------------------------------------------
D-|-9-9-9-9-9--9-9-9-9-9--9-9-9-9-9--------6-6-6-------
A-|-7-7-7-7-7--7-7-7-7-7--7-7-7-7-7--7-7-7-4-4-4-9-9-9-
E-|----------------------------------5-5-5-------7-7-7-

e-|----------------------------------------------------|
B-|----------------------------------------------------|
G-|----------------------------------------------------|
D-|-9-9-9-9-9--9-9-9-9-9--9-9-9-9-9--------6-6-6-------|
A-|-7-7-7-7-7--7-7-7-7-7--7-7-7-7-7--7-7-7-4-4-4-9-9-9-|
E-|----------------------------------5-5-5-------7-7-7-|

e-|-----------------------------------------------------------------
B-|-----------------------------------------------------------------
G-|-----------------------------------------------------------------
D-|-9-9-9-9-9-9-9-9-----------------9-9-9-9-9-9-9-9-----------------
A-|-7-7-7-7-7-7-7-7-9-9-9-9-9-9-9-9-7-7-7-7-7-7-7-7-7-7-7-7-7-7-7-7-
E-|-----------------7-7-7-7-7-7-7-7-----------------5-5-5-5-5-5-5-5-

e-|-------------------------------------------------
B-|-------------------------------------------------
G-|-------------------------------------------------
D-|-9-9-9-9-9-9-9-9-----------------9-9-----6-6-----
A-|-7-7-7-7-7-7-7-7-9-9-9-9-9-9-9-9-7-7-7-7-4-4-9-9-
E-|-----------------7-7-7-7-7-7-7-7-----5-5-----7-7-

e-|-----------------------------------------------------------------
B-|-----------------------------------------------------------------
G-|-----------------------------------------------------------------
D-|-9-9-9-9-9-9-9-9-----------------9-9-9-9-9-9-9-9-----------------
A-|-7-7-7-7-7-7-7-7-9-9-9-9-9-9-9-9-7-7-7-7-7-7-7-7-7-7-7-7-7-7-7-7-
E-|-----------------7-7-7-7-7-7-7-7-----------------5-5-5-5-5-5-5-5-

e-|-------------------------------------------------
B-|-------------------------------------------------
G-|-------------------------------------------------
D-|-9-9-9-9-9-9-9-9-----------------9-9-----6-6-----
A-|-7-7-7-7-7-7-7-7-9-9-9-9-9-9-9-9-7-7-7-7-4-4-9-9-
E-|-----------------7-7-7-7-7-7-7-7-----5-5-----7-7-

e-|-----------------------------------------------------------|
B-|-----------------------------------------------------------|
G-|-----------------------------------------------------------|
D-|-9-9-9-9-------------------------9-9-9-9-------------------|
A-|-7-7-7-7-4-4-4-4-7-7-7-7-9-9-9-9-7-7-7-7-4-4-4-4-7-7-7-7-9-|
E-|---------2-2-2-2-5-5-5-5-7-7-7-7---------2-2-2-2-5-5-5-5-7-|

e-|----------------------------------------------------
B-|----------------------------------------------------
G-|----------------------------------------------------
D-|-9-9-9-9-9--9-9-9-9-9--9-9-9-9-9--------6-6-6-------
A-|-7-7-7-7-7--7-7-7-7-7--7-7-7-7-7--7-7-7-4-4-4-9-9-9-
E-|----------------------------------5-5-5-------7-7-7-

e-|----------------------------------------------------|
B-|----------------------------------------------------|
G-|----------------------------------------------------|
D-|-9-9-9-9-9--9-9-9-9-9--9-9-9-9-9--------6-6-6-------|
A-|-7-7-7-7-7--7-7-7-7-7--7-7-7-7-7--7-7-7-4-4-4-9-9-9-|
E-|----------------------------------5-5-5-------7-7-7-|

e-|-----------------------------------------------------------------
B-|-----------------------------------------------------------------
G-|-----------------------------------------------------------------
D-|-9-9-9-9-9-9-9-9-----------------9-9-9-9-9-9-9-9-----------------
A-|-7-7-7-7-7-7-7-7-9-9-9-9-9-9-9-9-7-7-7-7-7-7-7-7-7-7-7-7-7-7-7-7-
E-|-----------------7-7-7-7-7-7-7-7-----------------5-5-5-5-5-5-5-5-

e-|-------------------------------------------------
B-|-------------------------------------------------
G-|-------------------------------------------------
D-|-9-9-9-9-9-9-9-9-----------------9-9-----6-6-----
A-|-7-7-7-7-7-7-7-7-9-9-9-9-9-9-9-9-7-7-7-7-4-4-9-9-
E-|-----------------7-7-7-7-7-7-7-7-----5-5-----7-7-

e-|-----------------------------------------------------------------
B-|-----------------------------------------------------------------
G-|-----------------------------------------------------------------
D-|-9-9-9-9-9-9-9-9-----------------9-9-9-9-9-9-9-9-----------------
A-|-7-7-7-7-7-7-7-7-9-9-9-9-9-9-9-9-7-7-7-7-7-7-7-7-7-7-7-7-7-7-7-7-
E-|-----------------7-7-7-7-7-7-7-7-----------------5-5-5-5-5-5-5-5-

e-|-------------------------------------------------|
B-|-------------------------------------------------|
G-|-------------------------------------------------|
D-|-9-9-9-9-9-9-9-9-----------------9-9-----6-6-----|
A-|-7-7-7-7-7-7-7-7-9-9-9-9-9-9-9-9-7-7-7-7-4-4-9-9-|
E-|-----------------7-7-7-7-7-7-7-7-----5-5-----7-7-|

e-|---------------------------------------------
B-|---------------------------------------------
G-|---------------------------------------------
D-|-9-9-9-9-13-13-13-13-14-14-14-14-11-11-14-14-
A-|-7-7-7-7-11-11-11-11-12-12-12-12--9--9-12-12-
E-|---------------------------------------------

e-|---------------------------------------------
B-|---------------------------------------------

G-|---------------------------------------------
D-|-9-9-9-9-13-13-13-13-14-14-14-14-11-11-14-14-
A-|-7-7-7-7-11-11-11-11-12-12-12-12--9--9-12-12-
E-|---------------------------------------------

e-|---------------------------------------------
B-|---------------------------------------------
G-|---------------------------------------------
D-|-9-9-9-9-13-13-13-13-14-14-14-14-11-11-14-14-
A-|-7-7-7-7-11-11-11-11-12-12-12-12--9--9-12-12-
E-|---------------------------------------------

e-|---------------------------------------------
B-|---------------------------------------------
G-|---------------------------------------------
D-|-9-9-9-9-13-13-13-13-14-14-14-14-11-11-14-14-
A-|-7-7-7-7-11-11-11-11-12-12-12-12--9--9-12-12-
E-|---------------------------------------------

e-|---------------------------------------------|
B-|---------------------------------------------|
G-|---------------------------------------------|
D-|-9-9-9-9-13-13-13-13-14-14-14-14-11-11-14-14-|
A-|-7-7-7-7-11-11-11-11-12-12-12-12--9--9-12-12-|
E-|---------------------------------------------|

e-|-----------------------------------------------------------------
B-|-----------------------------------------------------------------
G-|-----------------------------------------------------------------
D-|-9-9-9-9-9-9-9-9-----------------9-9-9-9-9-9-9-9-----------------
A-|-7-7-7-7-7-7-7-7-9-9-9-9-9-9-9-9-7-7-7-7-7-7-7-7-7-7-7-7-7-7-7-7-
E-|-----------------7-7-7-7-7-7-7-7-----------------5-5-5-5-5-5-5-5-

e-|-------------------------------------------------------------------|
B-|-------------------------------------------------------------------|
G-|-------------------------------------------------------------------|
D-|-9-9-9-9-9-9-9-9-----------------9-9-----9-9-----9-9---------------|
A-|-7-7-7-7-7-7-7-7-9-9-9-9-9-9-9-9-7-7-7-7-7-7-7-7-7-7-7-7-7-7-7-7-9-|
E-|-----------------7-7-7-7-7-7-7-7-----5-5-----5-5-----5-5-5-5-5-5-7-|
   =====================================================================


Important: The song above is NOT stored on the Chordie server. The original song is hosted at www.xguitar.com. Chordie works as a search engine and provides on-the-fly formatting. Chordie does not index songs against artists/composers will. To remove this song please click here.

This song is displayed as text-only. Transposing and tuning is only available for chordpro-songs.

Login - add to songbook

Rating click stars to rate

Layout
Accuracy

SHARE PAGE  



You need to log in to post comments