Guitar Tabs, Chords and Lyrics


A Crimson Cosmos    Lake Of Tears



Artist: Lake of Tears
Album: A Crimson Cosmos
Song: Cosmic Weed

Drop D (DADBGE) Tuning
A lot of the power chards and slightly muted.

[Fade In]
Verse:

|--------------------------------------------------------------------|
|--------------------------------------------------------------------|
|--------------------------------------------------------------------|
|-0--0-0-0-0-0-0-0-0-0-0-12\10-12\10-8--8-8-8-8-8-8\5--3/5\3/5\3-----|
|-0--0-0-0-0-0-0-0-0-0-0-12\10-12\10-8--8-8-8-8-8-8\5--3/5\3/5\3-----|
|-0--0-0-0-0-0-0-0-0-0-0-12\10-12\10-8--8-8-8-8-8-8\5--3/5\3/5\3-----|

Chorus:

|--------------------------------------------------------------------|
|--------------------------------------------------------------------|
|--------------------------------------------------------------------|
|-3--------------10------------------7--------------5--3/5\3/5\3-----|
|-3--------------10------------------7--------------5--3/5\3/5\3-----|
|-3--------------10------------------7--------------5--3/5\3/5\3-----|

End:

|--------------------------------------------------------------------|
|--------------------------------------------------------------------|
|--------------------------------------------------------------------|
|-3--------------10------------------7--------------5--3/5\3/5\3-0---|
|-3--------------10------------------7--------------5--3/5\3/5\3-0---|
|-3--------------10------------------7--------------5--3/5\3/5\3-0---|
								 ^
							       Abrupt

As far as the harmonics and other guitar screeches heard in the song, I'm
not entirely sure. However, doing a harmonic on the 7th fret of 4th
string is at least in the right key, if not the exact same noise.

Please email all comments to me at krelian@sdf.lonestar.org


Important: The song above is NOT stored on the Chordie server. The original song is hosted at www.xguitar.com. Chordie works as a search engine and provides on-the-fly formatting. Chordie does not index songs against artists/composers will. To remove this song please click here.

This song is displayed as text-only. Transposing and tuning is only available for chordpro-songs.

Login - add to songbook

Rating click stars to rate

Layout
Accuracy

SHARE PAGE  




You need to log in to post comments