Guitar Tabs, Chords and Lyrics


Boogie Bubble    Lake Of Tears



Artist: Lake of Tears
Album: A Crimson Cosmos
Song: Boogie Bubble

Drop D Tuning (DADGBE)

h = hammer on
p = pull off
^ = half bend
~ = vibrato
/ = slide up

Intro - Guitar 1 (clean)

|----------------------------------------------------------------------------|
|----------------------------------------------------------------------------|
|----------------------------------------------------------------------------|
|-0h2---2---2---2-0----0---0---0---0--0h2---2---2---2-0----0----0----0----0--|
|-----0---0---0---------------------------0--0---0---------------------------|
|-------------------5---5---5---5-----------------------5----5----5----5-----|

|----------------------------------------------------------------------------|
|----------------------------------------------------------------------------|
|----------------------------------------------------------------------------|
|-0h2---2---2---2-0----0---5---3--2h3p2--5-----5----5--3--2--0---------------|
|-----0--0----0-----------------------------3-----3--------------------------|
|--------------------5-----5-------------------------------------------------|

|----------------------------------------------------------------------------|
|----------------------------------------------------------------------------|
|----------------------------------------------------------------------------|
|-----0-----0------0------0--------------------------------------------------|
|----------------------------------------------------------------------------|
|--5-----5------5------5-----------------------------------------------------|


Intro - Guitar 2 (Reverb, Phaser?)

|----------------------------------------------------------------------------|
|----------------------------------------------------------------------------|
|----------9--7---------/9--5---4-----/7-------------------------------------|
|--7-------------------------------------------------------------------------|
|----------------------------------------------------------------------------|
|----------------------------------------------------------------------------|

|----------------------------------------------------------------------------|
|----------------------------------------------------------------------------|
|----------9--7--------12h-14p-12--9---7-------------------------------------|
|--7-------------------------------------------------------------------------|
|----------------------------------------------------------------------------|
|----------------------------------------------------------------------------|


Main Riff - Distorted and slighly palm muted

|----------------------------------------------------------------------------|
|----------------------------------------------------------------------------|
|----------------------------------------------------------------------------|
|-7---7-7-7-7-7-7--5---5-5-5-5/10--------------------------------------------|
|-7---7-7-7-7-7-7--5---5-5-5-5/10--------------------------------------------|
|-7---7-7-7-7-7-7--5---5-5-5-5/10--------------------------------------------|

First Solo - Distorted

                                  ^
|--------------------------------17~~~~~-------------------------------------|
|--10~~~~10h-12h-13/15/17---------------------17~~~~~~~~---------------------|
|----------------------------------------------------------------------------|
|----------------------------------------------------------------------------|
|----------------------------------------------------------------------------|
|----------------------------------------------------------------------------|

Verse - Distorted and slightly palm muted

|----------------------------------------------------------------------------|
|----------------------------------------------------------------------------|
|----------------------------------------------------------------------------|
|-7---7-7-7-7-7-7--5---5-5-5-5/10--------------------------------------------|
|-7---7-7-7-7-7-7--5---5-5-5-5/10--------------------------------------------|
|-7---7-7-7-7-7-7--5---5-5-5-5/10--------------------------------------------|
Vague Shadows....


Refrain - Distorted


|----------------------------------------------------------------------------|
|----------------------------------------------------------------------------|
|----------------------------------------------------------------------------|
|--2---2-2-2-2-2-0-----------------------------------------------------------|
|--2---2-2-2-2-2-0-----------------------------------------------------------|
|--2---2-2-2-2-2-0-----------------------------------------------------------|
Boogie bubble refrain...

Second Solo - Distortion and Chorus


|----------------------------------------------------------------------------|
|--17--17--13--15--13--12---h13----------------------------------------------|
|----------------------------------14--14--17--16--12--12--12-12/17----------|
|----------------------------------------------------------------------------|
|----------------------------------------------------------------------------|
|----------------------------------------------------------------------------|


|-----------------------17~--------------------------------------------------|
|---17--17--13--15--17-------------------------17-h18--15--------------------|
|----------------------------------14--14--17--------------------------------|
|----------------------------------------------------------------------------|
|----------------------------------------------------------------------------|
|----------------------------------------------------------------------------|


|-17~~~----17~~~---17~~~---------(Go crazy)----------------------------------|
|----------------------------------------------------------------------------|
|----------------------------------------------------------------------------|
|----------------------------------------------------------------------------|
|----------------------------------------------------------------------------|
|----------------------------------------------------------------------------|

Outro Rhythm Guitar Part (Less Distorted)


|----------------------------------------------------------------------------|
|----------------------------------------------------------------------------|
|----------------------------------------------------------------------------|
|--7--------------------------------7---------------------12--10-9-7---------|
|--7--------------------------------7---------------------12--10-9-7---------|
|--7--------------------------------7---------------------12--10-9-7---------|
Every boogie bubble (repeat)

Outro solo (Fuzz Distortion)


|----------------------------------------------------------------------------|
|--10--10--8--------10--10--8------------------------------------------------|
|-------------9----------------9------9--9--7----7---------------------------|
|----------------------------------------------------10--9---8---------------|
|----------------------------------------------------------------------------|
|----------------------------------------------------------------------------|

|----------------------------------------------------------------------------|
|--10--10--8-----------------------------------------------------------------|
|-------------9-----9--9--7----7---------------------------------------------|
|----------------------------------10--9--8----------------------------------|
|----------------------------------------------------------------------------|
|----------------------------------------------------------------------------|


Important: The song above is NOT stored on the Chordie server. The original song is hosted at www.xguitar.com. Chordie works as a search engine and provides on-the-fly formatting. Chordie does not index songs against artists'/composers' will. To remove this song please click here.

This song is displayed as text-only. Transposing and tuning is only available for chordpro-songs.

Login - add to songbook

Rating click stars to rate

Layout
Accuracy

SHARE PAGE  




You need to log in to post comments