Guitar Tabs, Chords and Lyrics


So Fell Autumn Rain    Lake Of Tears



Lake of Tears
So fell autumn rain

Intro:
(same as chorus)

Verse:

3x
|---------------------------------------------------------------------|
|---------------------------------------------------------------------|
|---------------------------------------------------------------------|
|---------------------------------------------------------------------|
|-7---7-7-7-7-7-7-7-7-7-7-7-7-7-7---5---5-5-5-5-5-5-5-5-5-5-5-5-5-5---|
|-5---5-5-5-5-5-5-5-5-5-5-5-5-5-5---3---3-3-3-3-3-3-3-3-3-3-3-3-3-3---|

1x
|---------------------------------------------------------------------|
|---------------------------------------------------------------------|
|---------------------------------------------------------------------|
|---------------------------------------------------------------------|
|-3---3-3-3-3-3-3-3-3-3-3-3-3-3-3---5---5-5-5-5-5-5-5-5-5-5-5-5-5-5---|
|-1---1-1-1-1-1-1-1-1-1-1-1-1-1-1---3---3-3-3-3-3-3-3-3-3-3-3-3-3-3---|


Chorus:
|-----------------------------------------------------------------|
|-----------------------------------------------------------------|
|-----------------------------------------------------------------|
|-----------------------------------------------------------------|
|-7---7---7---7---7---7---7---7---5---5---5---5---5---5---5---5---|
|-5---5---5---5---5---5---5---5---3---3---3---3---3---3---3---3---|

|-----------------------------------------------------------------|
|-----------------------------------------------------------------|
|-----------------------------------------------------------------|
|-----------------------------------------------------------------|
|-3---3---3---3---3---3---3---3---5---5---5---5---5---5---5---5---|
|-1---1---1---1---1---1---1---1---3---3---3---3---3---3---3---3---|

The solo is played over the verse riff played on an aucoustic guitar.
The following chords are played:
3x Gm F


Important: The song above is NOT stored on the Chordie server. The original song is hosted at www.xguitar.com. Chordie works as a search engine and provides on-the-fly formatting. Chordie does not index songs against artists'/composers' will. To remove this song please click here.

This song is displayed as text-only. Transposing and tuning is only available for chordpro-songs.

Login - add to songbook

Rating click stars to rate

Layout
Accuracy

SHARE PAGE  




You need to log in to post comments