Guitar Tabs, Chords and Lyrics


Tears    Lake Of Tears



Author/Artist: Lake Of Tears
Title: Tears
Album: Greater Art

Please mail me any corrections !

Main Riff

 2 nd start here
              > 1st start here
------------|----------------------------------------|
------------|----------------------------------------|
------------|----------------------------------------|
-2-3-3---3--|-3---3-5-5---5--5-5-7-7---7-8-7--5-5--5-|
-2-3-3---3--|-3---3-5-5---5--5-5-7-7---7-8-7--5-5--5-|
-0-1-1---1--|-1---1-3-3---3--3-3-5-5---5-6-5--3-3--3-|

melody
----------------------------------------------|
----------------------------------------------|
----------------------------------------------|
---------------------------------------h-p----|
--8-7-5----5-7-8--8-12-10--10-8-7---7-7-8-7-5-|
----------------------------------------------|


---------------------------------------------|
---------------------------------------------|
---------------------------------------------|
---------------------------12----12/---------|
--5-7-8--8-12-10--10-12-13----12-------------|
---------------------------------------------|

2nd Riff

------------------------------------|----------------------------|
------------------------------------|----------------------------|
--0-0-7-0-0-8-0-0-7-0-0-5-0-0-3-0-0-|-5-0-0-7-0-0-5-0-0-3-0-0-2--|
------------------------------------|----------------------------|
------------------------------------|----------------------------|
------------------------------------|----------------------------|


Important: The song above is NOT stored on the Chordie server. The original song is hosted at www.xguitar.com. Chordie works as a search engine and provides on-the-fly formatting. Chordie does not index songs against artists'/composers' will. To remove this song please click here.

This song is displayed as text-only. Transposing and tuning is only available for chordpro-songs.

Login - add to songbook

Rating click stars to rate

Layout
Accuracy

SHARE PAGE  




You need to log in to post comments