Guitar Tabs, Chords and Lyrics


Under The Crescent    Lake Of Tears



Author/Artist: Lake of Tears
Title: Under The Crescent
Album: Greater Art

Tune down from E to C#

note : For better handling tune down to D.

Intro & melody

-|------------------------------------|-------------------------------------|
-|------------------------------------|-------------------------------------|
-|------------------------------------|-------------------------------------|
-|-3-3--------------------------------|-3-3---------------------------------|
-|-----6-6-3-3------------------------|-----6-6-3-3-------------------------|
-|--------------4-6-6--6--4-6-6-4-4-1-|-------------4-6-6--6--4-6-6-4-6-4-6-|

Verse

-|------------------------------------------------------------|
-|------------------------------------------------------------|
-|------------------------------------------------------------|
-|-8--8-8--8--8-8--8--8-8--8--8--4--4-4--4--4-4-4-6-6--6--6-6-|
-|-8--8-8--8--8-8--8--8-8--8--8--4--4-4--4--4-4-4-6-6--6--6-6-|
-|-6--6-6--6--6-6--6--6-6--6--6--2--2-2--2--2-2-2-4-4--4--4-4-|


Solo Chords are the same as the verse but in another order : G5 - F5 - D#

Choru & Outro

-|------------------------------------------------|
-|------------------------------------------------|
-|------------------------------------------------|
-|-8--10-8--11-8--10-8--11-6--8--6--10-4--6--4--6-|
-|-8--10-8--11-8--10-8--11-6--8--6--10-4--6--4--6-|


Important: The song above is NOT stored on the Chordie server. The original song is hosted at www.xguitar.com. Chordie works as a search engine and provides on-the-fly formatting. Chordie does not index songs against artists'/composers' will. To remove this song please click here.

This song is displayed as text-only. Transposing and tuning is only available for chordpro-songs.

Login - add to songbook

Rating click stars to rate

Layout
Accuracy

SHARE PAGE  




You need to log in to post comments