Guitar Tabs, Chords and Lyrics


Burn Fire Burn    Lake Of Tears



Tabbed by: eliot battram
Email: binbagboy2004@yahoo.co.uk
Tuning: Drop D (DADGBE)

| /  slide up
| \  slide down
| h  hammer on
| p  pull off


#cutline#
e|---------------------------------------------------------------------------]
B|----------------------------------------------------------3-3--3-5-3-3-----]
G|-------------2--4-----------------------------------2-4-2------------------]
D|-/2-----2-5--------0--------0-/5---5h7-2--------2-5------------------------]
A|---------------------------------------------------------------------------]
D|---------------------------------------------------------------------------]

#cutline#
e|---------------------------------------------------------------------------]
B|---------------------------------------------------------------------------]
G|---------------------------------------------------------------------------]
D|--2--2-2-2-2-2-2------------5--5-5-5-5-5-5------2--2-2-2-2-2-2-------------]
A|--2--2-2-2-2-2-2------------5--5-5-5-5-5-5------2--2-2-2-2-2-2-------------]
D|--2--2-2-2-2-2-2------------5--5-5-5-5-5-5------2--2-2-2-2-2-2-------------]


#cutline#
e|---------------------------------------------------------------------------]
B|---------------------------------------------------------------------------]
G|---------------------------------------------------------------------------]
D|--2--2-2-2-2-2-2----0--0-0-0-0-0-0----2--2-2-2-2-2-2----0--0-0-0-0-0-0-----]
A|--2--2-2-2-2-2-2----0--0-0-0-0-0-0----2--2-2-2-2-2-2----0--0-0-0-0-0-0-----]
D|--2--2-2-2-2-2-2----0--0-0-0-0-0-0----2--2-2-2-2-2-2----0--0-0-0-0-0-0-----]


e|---------------------------------------------------------------------------]
B|---------------------------------------------------------------------------]
G|---------------------------------------------------------------------------]
D|--5--5-5-5-5-5-5----2--2-2-2-2-2-2----5--5-5-5-5-5-5----2--2-2-2-2-2-2-----]
A|--5--5-5-5-5-5-5----2--2-2-2-2-2-2----5--5-5-5-5-5-5----2--2-2-2-2-2-2-----]
D|--5--5-5-5-5-5-5----2--2-2-2-2-2-2----5--5-5-5-5-5-5----2--2-2-2-2-2-2-----]
 "We shall take the fire everywhere"    "And all our enemies shall burn, yeah"

#cutline#
e|-------------------------------------------------------------------------]
B|-------------------------------------------------------------------------]
G|------------------------------------5-----2---5---2-----2---0---2---0----]Repeat x4
D|--------------------------------2-2---2-2---2---2---0-0---0---0---0------]
A|-------------------------------------------------------------------------]
D|-------------------------------------------------------------------------]
"In the fire they all shall die"

#cutline#
e|---------------------------------------------------------------------------]
B|------------------3-3----3-5-3-3--0-3---3h5p3---5--3-3-0-0-----------------]
G|------------2-4-2-------------------------------------------2-2--0-2-0-----]
D|--2-----2-5------------------------------------------------------------2---]
A|---------------------------------------------------------------------------]
E|---------------------------------------------------------------------------]

e|---------------------------------------------------------------------------]
B|---------------------------------------------------------------------------]
G|--2-0-0--------------------------------------------------------------------]
D|--------2--2-0-0---0-------------------------------------------------------]
A|-----------------2---------------------------------------------------------]
D|---------------------------------------------------------------------------]




Important: The song above is NOT stored on the Chordie server. The original song is hosted at www.xguitar.com. Chordie works as a search engine and provides on-the-fly formatting. Chordie does not index songs against artists'/composers' will. To remove this song please click here.

This song is displayed as text-only. Transposing and tuning is only available for chordpro-songs.

Login - add to songbook

Rating click stars to rate

Layout
Accuracy

SHARE PAGE  




You need to log in to post comments