Guitar Tabs, Chords and Lyrics


The Path Of The Gods    Lake Of Tears



Author/Artist: Lake of Tears
Title: The path of the gods
Album: Headstones

Tune down to D (DGCFAD)

Here it is:

Intro(acoustic or clean electric):
|-----2-------2-------0-------0----------------------------2----|
|----3-3-----3-3-----2-2-----2-2-------0-------0-------2-2--2---|
|---4---4---4---4---2---2---2---2-----0-0-----0-0-----3-3-3--3--|
|--4-----4-4-----4-2-----2-2-----2---0---0---0---0---4---4-4--4-|
|-2-------2-------0-------0---------2-----2-2-----2-4-----4-4---|
|----------------------------------3-------3-------2------------|

Riff 1:
|--------------|
|--------------|
|--------------|
|--9--7--5--4--|
|--9--7--5--4--|
|--7--5--3--2--|

Riff 2:
|-------------------------------------------------------------------|
|-------------------------------------------------------------------|
|-------------------------------------------------------------------|
|--9-9-9-7-7-9-5-5-5-5-5-5-5-5-5-5-9-9-9-7-7-9-5-5-7-7-7-7-7-7-7-7--|
|--9-9-9-7-7-9-5-5-5-5-5-5-5-5-5-5-9-9-9-7-7-9-5-5-7-7-7-7-7-7-7-7--|
|--7-7-7-5-5-7-3-3-3-3-3-3-3-3-3-3-7-7-7-5-5-7-3-3-5-5-5-5-5-5-5-5--|

Riff 3:
|-------------------------------------------------------------------|
|-------------------------------------------------------------------|
|-------------------------------------------------------------------|
|--9-9-9-7-7-9-5-5-5-5-5-5-5-5-5-5-9-9-9-7-7-9-5-5-7-7-7-7-7-7-7-7--|
|--9-9-9-7-7-9-5-5-5-5-5-5-5-5-5-5-9-9-9-7-7-9-5-5-7-7-7-7-7-7-7-7--|
|--7-7-7-5-5-7-3-3-3-3-3-3-3-3-3-3-7-7-7-5-5-7-3-3-5-5-5-5-5-5-5-5--|
|..........................Palm..Mute...............................|

Riff 4:
|-------|-------|
|-------|-------|
|-------|-------|
|-9-7-5-|-5-4-2-|
|-9-7-5-|-5-4-2-|
|-7-5-3-|-3-2-0-|

Riff 5:
|-----2----------|-----0----------|
|----3-3-0-0-3-3-|----2-2-0-0-2-2-|
|---4------------|---2------------|
|--4-------------|--2-------------|
|-2--------------|-0--------------|
|----------------|----------------|

Riff 6:
|---------------------------------------------------------------|
|---------------------------------------------------------------|
|--4-4-4-4-4-4-4-6-7-7-7-7-7-7-7-2-2-2-2-2-2-2-4-6-2-2-2-2-2-2--|
|--4-4-4-4-4-4-4-6-7-7-7-7-7-7-7-2-2-2-2-2-2-2-4-6-2-2-2-2-2-2--|
|--2-2-2-2-2-2-2-4-5-5-5-5-5-5-5-0-0-0-0-0-0-0-2-4-0-0-0-0-0-0--|
|---------------------------------------------------------------|
   . .   . .           . .   .   . .   . .           . .   .

Riff 7:
|---------------------------------|
|---------------------------------|
|---------------------------------|
|-9-9-9-7-7-9-5-5-5-5-5-4-4-5-2-2-|
|-9-9-9-7-7-9-5-5-5-5-5-4-4-5-2-2-|


Important: The song above is NOT stored on the Chordie server. The original song is hosted at www.xguitar.com. Chordie works as a search engine and provides on-the-fly formatting. Chordie does not index songs against artists'/composers' will. To remove this song please click here.

This song is displayed as text-only. Transposing and tuning is only available for chordpro-songs.

Login - add to songbook

Rating click stars to rate

Layout
Accuracy

SHARE PAGE  




You need to log in to post comments