Guitar Tabs, Chords and Lyrics


Twilight    Lake Of Tears



Song: Twilight
Album: Headstones
Artist: Lake of Tears

This tab is divided into two sections: The acoustic and distorted part
of the song. I think this tab is pretty close but in most cases the
slides and different performancestyles are left out because they are
more easily learned by ear. I hope you enjoy this song and tab as
much as I do.

Drop D Tuning (DADGBE)


Distorted:
Intro and Verse (slide power chords)

|-----------------------------------------------------------------------------|
|-----------------------------------------------------------------------------|
|-----------------------------------------------------------------------------|
|-5--------1---3--5--5--3---------5---------5-1--3--5--5--3-------------------|
|-5--------1---3--5--5--3---------5---------5-1--3--5--5--3-------------------|
|-5--------1---3--5--5--3---------5---------5-1--3--5--5--3-------------------|


|-----------------------------------------------------------------------------|
|-----------------------------------------------------------------------------|
|-----------------------------------------------------------------------------|
|-8-------8--5--3---5--5---1-------5--------5-1---3--5--5--3------------------|
|-8-------8--5--3---5--5---1-------5--------5-1---3--5--5--3------------------|
|-8-------8--5--3---5--5---1-------5--------5-1---3--5--5--3------------------|
Repeat until Chorus Bridge


Bridge to Chorus

|-----------------------------------------------------------------------------|
|-----------------------------------------------------------------------------|
|----r------------------------------------------------------------------------|
|----e-3-3-3-3-3-3-3----------------------------------------------------------|
|----s-3-3-3-3-3-3-3----------------------------------------------------------|
|----t-3-3-3-3-3-3-3----------------------------------------------------------|

Chorus

|-----------------------------------------------------------------------------|
|-----------------------------------------------------------------------------|
|-----------------------------------------------------------------------------|
|-5----5----8----8---8\5----5---5\3----3--------------------------------------|
|-5----5----8----8---8\5----5---5\3----3--------------------------------------|
|-5----5----8----8---8\5----5---5\3----3--------------------------------------|
Repeat Until Verse

Chorus

Riff 2 Until Chorus

|-----------------------------------------------------------------------------|
|-----------------------------------------------------------------------------|
|-----------------------------------------------------------------------------|
|-5----1--3---5--3---1----3---8---5--3---5---1----5--3------------------------|
|-5----1--3---5--3---1----3---8---5--3---5---1----5--3------------------------|
|-5----1--3---5--3---1----3---8---5--3---5---1----5--3------------------------|

End (switch last few bar chords to this)
|-----------------------------------------------------------------------------|
|-----------------------------------------------------------------------------|
|-----------------------------------------------------------------------------|
|-1----1----1--0--------------------------------------------------------------|
|-1----1----1--0--------------------------------------------------------------|
|-1----1----1--0--------------------------------------------------------------|


Acoustic Part: (as best as I can figure)
This is very hard to make sound like the album, but with plenty of slides it
pretty good. h=hammer on (don't pluck), p= pull off

Intro
|-----------------------------------------------------------------------------|
|-----------------------------------------------------------------------------|
|----------------------------3------------------------------------------------|
|----0--0--h5--5--0--0-h5-----------5--3-------0--0--5p3----------------------|
|-----------------------------------------------------------------------------|
|-----------------------------------------------------------------------------|
                                                       Bend
|-------------------------------------------------------^---------------------|
|-------------------------------------------------------^---------------------|
|----------------------------3-------7--5-------3--3--2-2---------------------|
|-----0--0--h5--5--0--0-h5----------------------------------------------------|
|-----------------------------------------------------------------------------|
|-----------------------------------------------------------------------------|
                                                      Bend
|----------------------------------------------------6-^----------------------|
|------------------------------------------------6-8---8----------------------|
|-------------------------7-----10----5------5-7------------------------------|
|----3--3/8--8-----8----------------------------------------------------------|
|---------------8-----8-------------------------------------------------------|
|-----------------------------------------------------------------------------|

|-----------------------------------------------------------------------------|
|-----------------------------------------------------------------------------|
|----------------------------3------------------------------------------------|
|----0--0---h5--5--0--0-h5----------5--3----------3--3p0--0-------------------|
|-----------------------------------------------------------------------------|
|-----------------------------------------------------------------------------|

Chorus:

|-----------------------------------------------------------------------------|
|-----------------------------------------------------------------------------|
|------3---3r5p3--3-3--7--5--3--3p0---------3------------------0---3--3-3h5p3-|
|-0/5------------------------------------------------5--5p3-------------------|
|-----------------------------------------------------------------------------|
|-----------------------------------------------------------------------------|

|-----------------------------------------------------------------------------|
|-----------------------------------------------------------------------------|
|--0---3---3r5p3--3-3--7--5--3--3p0---------3------------------0---3--3/5--3--|
|----------------------------------------------------5--5p3-------------------|
|-----------------------------------------------------------------------------|


Important: The song above is NOT stored on the Chordie server. The original song is hosted at www.xguitar.com. Chordie works as a search engine and provides on-the-fly formatting. Chordie does not index songs against artists'/composers' will. To remove this song please click here.

This song is displayed as text-only. Transposing and tuning is only available for chordpro-songs.

Login - add to songbook

Rating click stars to rate

Layout
Accuracy

SHARE PAGE  




You need to log in to post comments