Guitar Tabs, Chords and Lyrics


11th Hour    Lamb Of God



Band: Lamb Of God
    Album: "As The Palaces Burn"
     Song: "11th Hour"
   Length: 3:43

   Tuning: (D,A,D,G,B,D) Low To High

      Key: pm = Palm Mute
            p = Pull Off
            % = Rest
            / = Slide Up
          b() = Bend Up Or Down To Whatever Note Is In The ()
           ph = Pinch Harmonic




     Intro - (Guitars 1 & 2)

                                       3x
 D|--------------------------------------|     D|-------------------------------------|
 B|--------------------------------------|     B|-------------------------------------|
 G|--------------------------------------|     G|-------------------------------------|
 D|--------------------------------------|     D|-------------------------------------|
 A|-12-------13-12-----------------------|     A|-12-------13-12----12-11----11-10----|
 D|----13-12-------13--0--0-0-0--0--0--0-|     D|----13-12-------13-------12-------11-|
 pm     .  .     .     .  . . .  .  .  .       pm     .  .     .     .  .  .  .  .  .




     Intro 2 - (Guitars 1 & 2)

                                       3x
 D|--------------------------------------|     D|------------------------------------------|
 B|--------------------------------------|     B|------------------------------------------|
 G|--------------------------------------|     G|------------------------------------------|
 D|--------------------------------------|     D|------------------------------------8---7-|
 A|-12-------13-12-----------------------|     A|12-------13-12----8-7-6-------5-----6---5-|
 D|----13-12-------13--0--0-0-0--0--0--0-|     D|---13-12-------13-------9-8-7---6-5---0---|
 pm     .  .     .     .  . . .  .  .  .       pm    .  .     .    . . . . . .   . .   .




     Intro 3 - (Guitars 1 & 2)

                                              4x
 D|---------------------------------------------|     D|------------------------------------------------------------------|
 B|---------------------------------------------|     B|------------------------------------------------------------------|
 G|---------------------------------------------|     G|-----------------%------------------%-----------------------------|
 D|---------------------------------------8---7-|     D|------------------------------------------------------------------|
 A|-------1p0-------1p0-4-------1p0-5-----6---5-|     A|------------------------------------------------------2/3-3-3/7-8-|
 D|-0-0-0-1p0-0-0-0-1p0-4-0-0-0-1p0---6-5---0---|     D|-4-4-4--4--4--4-----4-4-4--4--4--4-----3-3-3--3--3--3-2/3-3-3/7-8-|
 pm . . .     . . .       . . .       . .   .         pm . . .  .  .  .     . . .  .  .  .     . . .  .  .  .




     Verse 1 - (Guitars 1 & 2)

                                              4x
 D|---------------------------------------------|     D|------------------------------------------------------------------|
 B|---------------------------------------------|     B|------------------------------------------------------------------|
 G|---------------------------------------------|     G|-----------------%------------------%-----------------------------|
 D|---------------------------------------8---7-|     D|------------------------------------------------------------------|
 A|-------1p0-------1p0-4-------1p0-5-----6---5-|     A|------------------------------------------------------2/3-3-3/7-8-|
 D|-0-0-0-1p0-0-0-0-1p0-4-0-0-0-1p0---6-5---0---|     D|-4-4-4--4--4--4-----4-4-4--4--4--4-----3-3-3--3--3--3-2/3-3-3/7-8-|
 pm . . .     . . .       . . .       . .   .         pm . . .  .  .  .     . . .  .  .  .     . . .  .  .  .




     Chorus 1 - (Guitars 1 & 2)

 D|-----------------------------------------------|-----------------------------------------------------------------|
 B|----------------6-----------------6----------6-|-----------------7------------------7----------------------------|
 G|----------------9-----------------9----------9-|----------------10-----------------10----*b(14)r(13)p10-14b(16)--|
 D|-----------------------------------------------|-----------------------------------------------------------------|
 A|-----------------------------------------------|-----------------------------------------------------------------|
 D|-0-0-0--0--0--0----0-0-0--0--0--0----0--0--0---|-8-8-8--8--8--8-----8-8-8--8--8--8-------------------------------|
 pm . . .  .  .  .    . . .  .  .  .    .  .  .     . . .  .  .  .     . . .  .  .  .

     * = Pre-Bend the 13th fret up 1 whole step and strike, then release back to normal pitch and pull off to the 10th fret


 D|-----------------------------------------------|------------------------------------------------------|
 B|----------------6-----------------6----------6-|-----------------7------------------7-----------------|
 G|----------------9-----------------9----------9-|----------------10-----------------10-----------------|
 D|-----------------------------------------------|------------------------------------------------------|
 A|-----------------------------------------------|---------------------------------------12-10-----10---|
 D|-0-0-0--0--0--0----0-0-0--0--0--0----0--0--0---|-8-8-8--8--8--8-----8-8-8--8--8--8-----------8-8----8-|
 pm . . .  .  .  .    . . .  .  .  .    . . . .     . . .  .  .  .     . . .  .  .  .           . .    .

                                                                                                            ph
 D|-----------------------------------------------|-------------------------------------------------------------------|
 B|----------------6-----------------6----------6-|-----------------7------------------7------------------------------|
 G|----------------9-----------------9----------9-|----------------10-----------------10----*b(14)r(13)p10-(16)--|
 D|-----------------------------------------------|-------------------------------------------------------------------|
 A|-----------------------------------------------|-------------------------------------------------------------------|
 D|-0-0-0--0--0--0----0-0-0--0--0--0----0--0--0---|-8-8-8--8--8--8-----8-8-8--8--8--8---------------------------------|
 pm . . .  .  .  .    . . .  .  .  .    .  .  .     . . .  .  .  .     . . .  .  .  .

     * = Pre-Bend the 13th fret up 1 whole step and strike, then release back to normal pitch and pull off to the 10th fret


 D|-----------------------------------------------|------------------------------------------------------|
 B|----------------6-----------------6----------6-|-----------------7------------------7-----------------|
 G|----------------9-----------------9----------9-|----------------10-----------------10-----------------|
 D|-----------------------------------------------|------------------------------------------------------|
 A|-----------------------------------------------|---------------------------------------12-10-----10---|
 D|-0-0-0--0--0--0----0-0-0--0--0--0----0--0--0---|-8-8-8--8--8--8-----8-8-8--8--8--8-----------8-8----8-|
 pm . . .  .  .  .    . . .  .  .  .    . . . .     . . .  .  .  .     . . .  .  .  .           . .    .




     Verse 2 Pt.1 - (Guitars 1 & 2)

 D|--------------------------------------------|----------------------------------------------------|
 B|--------------------------------------------|----------------------------------------------------|
 G|--------------------------------------------|----------------------------------------------------|
 D|--------------------------------------------|----------------------------------------------------|
 A|-----------------7/8~------------------7/8~-|-----------------7/8~------------------7/8~--8\7-7--|
 D|-0-0-0--0--0--0--------0-0-0--0--0--0-------|-8-8-8--8--8--8--------5-5-5--5--5--5---------------|
 pm . . .  .  .  .        . . .  .  .  .         . . .  .  .  .        . . .  .  .  .

                                                                                               ph
 D|--------------------------------------------|----------------------------------------------------|
 B|--------------------------------------------|----------------------------------------------------|
 G|--------------------------------------------|----------------------------------------------------|
 D|--------------------------------------------|----------------------------------------------------|
 A|-----------------7/8~------------------7/8~-|-----------------7/8~------------------7h8p7--------|
 D|-0-0-0--0--0--0--------0-0-0--0--0--0-------|-8-8-8--8--8--8--------5-5-5--5--5--5-----------|
 pm . . .  .  .  .        . . .  .  .  .         . . .  .  .  .        . . .  .  .  .




     Verse 2 Pt.2 - (Guitar 1)

 D|--------------------------------------------|----------------------------------------------------|
 B|--------------------------------------------|----------------------------------------------------|
 G|--------------------------------------------|----------------------------------------------------|
 D|--------------------------------------------|----------------------------------------------------|
 A|-----------------7/8~------------------7/8~-|-----------------7/8~------------------7/8~--8\7-7--|
 D|-0-0-0--0--0--0--------0-0-0--0--0--0-------|-8-8-8--8--8--8--------5-5-5--5--5--5---------------|
 pm . . .  .  .  .        . . .  .  .  .         . . .  .  .  .        . . .  .  .  .


 D|--------------------------------------------|--------------------------------------------------|
 B|--------------------------------------------|--------------------------------------------------|
 G|--------------------------------------------|--------------------------------------------------|
 D|--------------------------------------------|--------------------------------------------------|
 A|-----------------7/8~------------------7/8~-|-----------------7/8~------------------7h8p7------|
 D|-0-0-0--0--0--0--------0-0-0--0--0--0-------|-8-8-8--8--8--8--------5-5-5--5--5--5---------3b--|
 pm . . .  .  .  .        . . .  .  .  .         . . .  .  .  .        . . .  .  .  .


     Verse 2 Pt.2 - (Guitar 2)

 D|
 B|
 G|
 D|     (Coming Soon)
 A|
 D|
 pm


 D|
 B|
 G|
 D|     (Coming Soon)
 A|
 D|
 pm




     Chorus 2 - (Guitars 1 & 2)

 D|-----------------------------------------------|-----------------------------------------------------------------|
 B|----------------6-----------------6----------6-|-----------------7------------------7----------------------------|
 G|----------------9-----------------9----------9-|----------------10-----------------10----*b(14)r(13)p10-14b(16)--|
 D|-----------------------------------------------|-----------------------------------------------------------------|
 A|-----------------------------------------------|-----------------------------------------------------------------|
 D|-0-0-0--0--0--0----0-0-0--0--0--0----0--0--0---|-8-8-8--8--8--8-----8-8-8--8--8--8-------------------------------|
 pm . . .  .  .  .    . . .  .  .  .    .  .  .     . . .  .  .  .     . . .  .  .  .

     * = Pre-Bend the 13th fret up 1 whole step and strike, then release back to normal pitch and pull off to the 10th fret


 D|-----------------------------------------------|------------------------------------------------------|
 B|----------------6-----------------6----------6-|-----------------7------------------7-----------------|
 G|----------------9-----------------9----------9-|----------------10-----------------10-----------------|
 D|-----------------------------------------------|------------------------------------------------------|
 A|-----------------------------------------------|---------------------------------------12-10-----10---|
 D|-0-0-0--0--0--0----0-0-0--0--0--0----0--0--0---|-8-8-8--8--8--8-----8-8-8--8--8--8-----------8-8----8-|
 pm . . .  .  .  .    . . .  .  .  .    . . . .     . . .  .  .  .     . . .  .  .  .           . .    .

                                                                                                            ph
 D|-----------------------------------------------|-------------------------------------------------------------------|
 B|----------------6-----------------6----------6-|-----------------7------------------7------------------------------|
 G|----------------9-----------------9----------9-|----------------10-----------------10----*b(14)r(13)p10-(16)--|
 D|-----------------------------------------------|-------------------------------------------------------------------|
 A|-----------------------------------------------|-------------------------------------------------------------------|
 D|-0-0-0--0--0--0----0-0-0--0--0--0----0--0--0---|-8-8-8--8--8--8-----8-8-8--8--8--8---------------------------------|
 pm . . .  .  .  .    . . .  .  .  .    .  .  .     . . .  .  .  .     . . .  .  .  .

     * = Pre-Bend the 13th fret up 1 whole step and strike, then release back to normal pitch and pull off to the 10th fret


 D|-----------------------------------------------|-------------------------------------------------------------------|
 B|----------------6-----------------6----------6-|-----------------7------------------7------------------------------|
 G|----------------9-----------------9----------9-|----------------10-----------------10------------------------------|
 D|-----------------------------------------------|-------------------------------------------------------------------|
 A|-----------------------------------------------|---------------------------------------12-10-----10---8-7-5-10-8-7-|
 D|-0-0-0--0--0--0----0-0-0--0--0--0----0--0--0---|-8-8-8--8--8--8-----8-8-8--8--8--8-----------8-8----8--------------|
 pm . . .  .  .  .    . . .  .  .  .    . . . .     . . .  .  .  .     . . .  .  .  .           . .    .




     Interlude - (Guitars 1 & 2)
                                                                  ph      ph
 D|--------------------------------------------------------------------------|
 B|--------------------------------------------------------------------------|
 G|--------------------------------------------------------------------------| ---
 D|-------------------------10-------8-7-------------------------------------|    |
 A|-------8---12---10----------------------------8---12---10-----------------|    |
 D|-0-0-0---0----0----0-8-0----8-8-7-----0-0-0-0---0----0----0-3/-0-3/-|    |
 pm . . .   .    .    . . .    . . .     . . . .   .    .                         |--- 2x
										  |
                                                          ph      ph              |
 D|------------------------------------------------------------------|            |
 B|------------------------------------------------------------------|            |
 G|------------------------------------------------------------------| -----------
 D|--------------------------------------------8---7-----------------|
 A|-------7---10---8---7---8---7-8---------8-------------------------|
 D|-8-8-8---8----8---8---8---8-----5-5-5-5---5---5---0-3/-0-3/-|
 pm . . .   .    .   .   .   .     . . . .   .   .



     Interlude 2 - (Guitars 1 & 2)
                                                                  3x
 D|-----------------------------------------------------------------|
 B|-----------------------------------------------------------------|
 G|------------------%-------------------%-----------%-----------%--|
 D|-----------------------------------------------------------------|
 A|-0-0-0-0-0-0-0-0-----0-0-0-0-0-0-0-0-----0-0-0-0-----0-0-0-0-----|
 D|-0-0-0-0-0-0-0-0-----0-0-0-0-0-0-0-0-----0-0-0-0-----0-0-0-0-----|
 pm . . . . . . . .     . . . . . . . .     . . . .     . . . .


 D|------------------------------------------------------------|
 B|---------------------------------------------------4--------|
 G|------------------%-------------------%------------7--------|
 D|------------------------------------------------------------|
 A|-0-0-0-0-0-0-0-0-----0-0-0-0-0-0-0-0-----0--0--0------------|
 D|-0-0-0-0-0-0-0-0-----0-0-0-0-0-0-0-0-----0--0--0------------|
 pm . . . . . . . .     . . . . . . . .     .  .  .




     Breakdown - (Guitar 1)
											           4x
 D|------------------------------------------------|-------------------------------------------------|
 B|------------------------------------------------|-------------------------------------------------|
 G|----------%-----------%-----------%-----------%-|----------%-----------%-----------%-----------%--|
 D|------------------------------------------------|-------------------------------------------------|
 A|-0-0-0-0-----0-0-0-0-----0-0-0-0-----0-0-0-0----|-0-0-0-0-----0-0-0-0-----0-0-0-0-----0-0-0-0-----|
 D|-0-0-0-0-----0-0-0-0-----0-0-0-0-----0-0-0-0----|-0-0-0-0-----0-0-0-0-----0-0-0-0-----0-0-0-0-----|
 pm . . . .     . . . .     . . . .     . . . .      . . . .     . . . .     . . . .     . . . .


    Breakdown - (Guitar 2)
                                      								   4x
 D|------------------------------------------------|-------------------------------------------------|
 B|----------4-----------4-----------4-----------4-|----------4-----------4-----------4-----------4--|
 G|----------7-----------7-----------7-----------7-|----------7-----------7-----------7-----------7--|
 D|------------------------------------------------|-------------------------------------------------|
 A|-0-0-0-0-----0-0-0-0-----0-0-0-0-----0-0-0-0----|-0-0-0-0-----0-0-0-0-----0-0-0-0-----0-0-0-0-----|
 D|-0-0-0-0-----0-0-0-0-----0-0-0-0-----0-0-0-0----|-0-0-0-0-----0-0-0-0-----0-0-0-0-----0-0-0-0-----|
 pm . . . .     . . . .     . . . .     . . . .      . . . .     . . . .     . . . .     . . . .




     Breakdown 2 - (Guitars 1 & 2)

                                                 ph      ph  4x
 D|------------------------------------------------------------|
 B|------------------------------------------------------------|
 G|------------------------------------------------------------|
 D|------------------------------------------------------------|
 A|-0-0-0-0-0-0-0-0-0-0-0-0-0-0-0-0-0-0-0-0-0------------------|
 D|-0-0-0-0-0-0-0-0-0-0-0-0-0-0-0-0-0-0-0-0-0-3/-0-3/----|
 pm . . . . . . . . . . . . . . . . . . . . .




     Outro - (Guitars 1 & 2)

                                                                   ph      ph  4x
 D|------------------------------------------------------------------------------|
 B|--------4---------4---------4---------4---------4---------4-------------------|
 G|--------7---------7---------7---------7---------7---------7-------------------|
 D|------------------------------------------------------------------------------|
 A|-0-0-0-----0-0-0-----0-0-0-----0-0-0-----0-0-0-----0-0-0----------------------|
 D|-0-0-0-----0-0-0-----0-0-0-----0-0-0-----0-0-0-----0-0-0-----3/-0-3\----|


Important: The song above is NOT stored on the Chordie server. The original song is hosted at www.xguitar.com. Chordie works as a search engine and provides on-the-fly formatting. Chordie does not index songs against artists'/composers' will. To remove this song please click here.

This song is displayed as text-only. Transposing and tuning is only available for chordpro-songs.

Login - add to songbook

Rating click stars to rate

Layout
Accuracy

SHARE PAGE  




You need to log in to post comments