Guitar Tabs, Chords and Lyrics


Purified    Lamb Of God



Purified
Tabbed by Tim Mena
tim_mena@yahoo.com

                                                                     Lamb of God
Guitar 1




E||---------------------||------------------------------|
B||---------------------||------------------------------|
G||---------------------||*-----------------------------|
D||---------------------||*-----------------------------|
A||--------------8--11--||---10-------------------6--9--|
D||---------------------||-------0--0-0-0--0-0-0--------|



-----------------------------|-----------------------------|
-----------------------------|-----------------------------|
-----------------------------|-----------------------------|
-----------------------------|-----------------------------|
--8-------------------8--10--|--11-------------------------|
-----0--0-0-0--0-0-0---------|------0--0-0-0--6--0--0-0-0--|



------------------------------|------------------------------|
------------------------------|------------------------------|
------------------------------|------------------------------|
------------------------------|------------------------------|
-----------------------8--11--|--10-------------------7--10--|
--0-0-0-0-3----0-0-0-0--------|------0--0-0-0--0-0-0---------|



----------------------------|------------------------------|
----------------------------|------------------------------|
----------------------------|------------------------------|
----------------------------|------------------------------|
--8-------------------5--8--|--7---------------------------|
-----0--0-0-0--0-0-0--------|-----0--0-0-0--0-0-0--1-1-1-1-|



--------------------------||--------------------------|
--------------------------||--------------------------|
-------------------------*||--------------------------|
-------------------------*||--------------------------|
------------------8--11---||--------------------------|
--4-4-4-4-3-3-3-3---------||--4-4-4-4-3-3-3-3-4-4-4-4-|



----------------------------------|----------------------------------|
----------------------------------|----------------------------------|
----------------------------------|----------------------------------|
----------------------------------|----------------------------------|
----------------------------------|----------------------------------|
--1-1-1-1-4-4-4-4-3-3-3-3-4-4-4-4-|--1-1-1-1-4-4-4-4-3-3-3-3-4-4-4-4-|



--------------------------|------------------------------|
--------------------------|------------------------------|
--------------------------|------------------------------|
--------------------------|------------------------------|
--1--------3-----4-----3--|------------------------------|
--1--0--0--3--0--4--0--3--|--0-0-0--0-0-0--0-0-0--0-0-0--|



--------------------------|--------------------------|
--------------------------|--------------------------|
--------------------------|--------------------------|
--------------------------|--------4--5--------8--7--|
--1--------3-----4-----3--|--------5--6--------9--8--|
--1--0--0--3--0--4--0--3--|--0--0--------0--0--------|



--------------------------|------------------------------|
--------------------------|------------------------------|
--------------------------|------------------------------|
--------------------------|------------------------------|
--1--------3-----4-----3--|------------------------------|
--1--0--0--3--0--4--0--3--|--0-0-0--0-0-0--0-0-0--0-0-0--|



--------------------------|--------------------------|
--------------------------|--------------------------|
--------------------------|--------------------------|
--------------------------|--------------------------|
--1--------3-----4-----3--|--------5-----6--5--3--5--|
--1--0--0--3--0--4--0--3--|--0--0--5--0--6--5--3--5--|



--------------------------|------------------------------|
--------------------------|------------------------------|
--------------------------|------------------------------|
--------------------------|------------------------------|
--1--------3-----4-----3--|------------------------------|
--1--0--0--3--0--4--0--3--|--0-0-0--0-0-0--0-0-0--0-0-0--|



--------------------------|--------------------------|
--------------------------|--------------------------|
--------------------------|--------------------------|
--------------------------|--------4--5--------8--7--|
--1--------3-----4-----3--|--------5--6--------9--8--|
--1--0--0--3--0--4--0--3--|--0--0--------0--0--------|



--------------------------|------------------------------|
--------------------------|------------------------------|
--------------------------|------------------------------|
--------------------------|------------------------------|
--1--------3-----4-----3--|------------------------------|
--1--0--0--3--0--4--0--3--|--0-0-0--0-0-0--0-0-0--0-0-0--|



--------------------------|--------------------------|
--------------------------|--------------------------|
--------------------------|--------------------------|
--------------------------|--------------------------|
--1--------3-----4-----3--|--------5-----6--5--3--5--|
--1--0--0--3--0--4--0--3--|--0--0--5--0--6--5--3--5--|



--------------------------|--------------------------|
--------------------------|--------------------------|
--------------------------|--------------------------|
--------------------------|--------------------------|
--------5-----6--5--3--5--|--------5-----6--5--3--5--|
--0--0--5--0--6--5--3--5--|--0--0--5--0--6--5--3--5--|



---------------------------|--------------------------|
---------------------------|--------------------------|
---------------------------|--------------------------|
---------------------------|--------------------------|
---------------------0--0--|-----------0-----------0--|
--0-0-0--0--5--4--1--0--0--|--5--4--1--0--5--4--1--0--|



--------------------------|--------------------------|
--------------------------|--------------------------|
--------------------------|--------------------------|
--------------------------|--------------------------|
--0-----------0--0--------|-----0-----------0--0-----|
--0--5--4--1--0--0--5--4--|--1--0--4--3--1--0--0--4--|



--------------------------|--------------------------|
--------------------------|--------------------------|
--------------------------|--------------------------|
--------------------------|--------------------------|
--------0--0-----------0--|-----------0--0-----------|
--3--1--0--0--4--3--1--0--|--4--3--1--0--0--4--3--1--|



---------------------------|--------------------------|
---------------------------|--------------------------|
---------------------------|--------------------------|
---------------------------|--------------------------|
--0--0-----------0---------|-----------0--0-----------|
--0--0--4--3--1--0--0-0-0--|--5--4--1--0--0--5--4--1--|



--------------------------|--------------------------|
--------------------------|--------------------------|
--------------------------|--------------------------|
--------------------------|--------------------------|
--0--0-----------0--------|-----0--0-----------0--0--|
--0--0--5--4--1--0--5--4--|--1--0--0--5--4--1--0--0--|



--------------------------|--------------------------|
--------------------------|--------------------------|
--------------------------|--------------------------|
--------------------------|--------------------------|
-----------0-----------0--|--0-----------0--0--------|
--5--4--1--0--4--3--1--0--|--0--4--3--1--0--0--4--3--|



--------------------------|--------------------------|
--------------------------|--------------------------|
--------------------------|--------------------------|
--------------------------|--------------------------|
-----0-----------0--0-----|--------0--0--------------|
--1--0--4--3--1--0--0--4--|--3--1--0--0--4--3--1--0--|



-----------------------------|----------------------------|
-----------------------------|----------------------------|
-----------------------------|----------------------------|
-----------------------------|----------------------------|
---------3--3----------------|--5--5----------------6--6--|
--0-0-0--------0-0-0--0-0-0--|--------0-0-0--0-0-0--------|



-----------------------------|----------------------------|
-----------------------------|----------------------------|
-----------------------------|----------------------------|
-----------------------------|----------------------------|
----------------5--5---------|--3--3---------1--1---------|
--0-0-0--0-0-0--------0-0-0--|--------0-0-0--------0-0-0--|



----------------------------|-----------------------------|
----------------------------|-----------------------------|
----------------------------|-----------------------------|
----------------------------|-----------------------------|
--0--0----------------------|----------------1--1---------|
--------0-0-0--0-0-0--5--5--|--0-0-0--0-0-0--------0-0-0--|



-----------------------------|----------------------------|
-----------------------------|----------------------------|
-----------------------------|----------------------------|
-----------------------------|----------------------------|
---------0--0----------------|---------------0--0---------|
--0-0-0--------0-0-0--0-0-0--|--5--5--0-0-0--------0-0-0--|



--------------------------|--------------------------|
--------------------------|--------------------------|
--------------------------|--------------------------|
--------------------7--7--|--------------8--8--------|
--3--3--0--1--0--1--5--5--|--0--1--0--1--6--6--0--1--|
--------0--1--0--1--------|--0--1--0--1--------0--1--|



--------------------------|--------------------------|
--------------------------|--------------------------|
--------------------------|--------------------------|
--------7--7--------------|--5--5--------3--3--------|
--0--1--5--5--0--1--0--1--|--3--3--0--1--1--1--0--1--|
--0--1--------0--1--0--1--|--------0--1--------0--1--|



--------------------------|--------------------------|
--------------------------|--------------------------|
--------------------------|--------------------------|
--2--2--------------------|--------------3--3--------|
--0--0--0--1--0--1--5--5--|--0--1--0--1--1--1--0--1--|
--------0--1--0--1--5--5--|--0--1--0--1--------0--1--|



--------------------------|-----------------------|--------------------------|
--------------------------|-----------------------|--------------------------|
--------------------------|-----------------------|--------------------------|
--2--2--------------------|--------------2--------|--------------------------|
--0--0--0--1--0--1--5--5--|--0--1--0--1--0--------|--1--------3-----4-----3--|
--------0--1--0--1--5--5--|--0--1--0--1-----------|--1--0--0--3--0--4--0--3--|



------------------------------|--------------------------|
------------------------------|--------------------------|
------------------------------|--------------------------|
------------------------------|--------------------------|
------------------------------|--1--------3-----4-----3--|
--0-0-0--0-0-0--0-0-0--0-0-0--|--1--0--0--3--0--4--0--3--|



--------------------------|--------------------------|
--------------------------|--------------------------|
--------------------------|--------------------------|
--------4--5--------8--7--|--------------------------|
--------5--6--------9--8--|--1--------3-----4-----3--|
--0--0--------0--0--------|--1--0--0--3--0--4--0--3--|



------------------------------|--------------------------|
------------------------------|--------------------------|
------------------------------|--------------------------|
------------------------------|--------------------------|
------------------------------|--1--------3-----4-----3--|
--0-0-0--0-0-0--0-0-0--0-0-0--|--1--0--0--3--0--4--0--3--|



--------------------------|--------------------------|
--------------------------|--------------------------|
--------------------------|--------------------------|
--------------------------|--------------------------|
--------5-----6--5--3--5--|--------------------------|
--0--0--5--0--6--5--3--5--|--2~---2-2-2--5~---2-2-2--|



---------------------------|--------------------------|
---------------------------|--------------------------|
---------------------------|--------------------------|
------------3--------------|--------------------------|
------------1--2--5--3--0--|--------------------------|
--2-2-2--2-----2--5--3--0--|--2~---2-2-2--3~---2-2-2--|



------------------------------|--------------------------|
------------------------------|--------------------------|
------------------------------|--------------------------|
---------3--------------------|--------------------------|
---------1--------------------|--------------------------|
--2-2-2-------0-0-0-0-3-3-3-3-|--2~---2-2-2--5~---2-2-2--|



---------------------------|--------------------------|
---------------------------|--------------------------|
---------------------------|--------------------------|
------------3--------------|--------------------------|
------------1--2--5--3--0--|--------------------------|
--2-2-2--2-----2--5--3--0--|--2~---2-2-2--3~---2-2-2--|



------------------------------|--------------------------|
------------------------------|--------------------------|
------------------------------|--------------------------|
---------3--------------------|--------------------------|
---------1--------------------|--------------------------|
--2-2-2-------0-0-0-0-3-3-3-3-|--2~---2-2-2--5~---2-2-2--|



---------------------------|--------------------------|
---------------------------|--------------------------|
---------------------------|--------------------------|
------------3--------------|--------------------------|
------------1--2--5--3--0--|--------------------------|
--2-2-2--2-----2--5--3--0--|--2~---2-2-2--3~---2-2-2--|



------------------------------|--------------------------|
------------------------------|--------------------------|
------------------------------|--------------------------|
---------3--------------------|--------------------------|
---------1--------------------|--------------------------|
--2-2-2-------0-0-0-0-3-3-3-3-|--2~---2-2-2--5~---2-2-2--|



---------------------------|--------------------------|
---------------------------|--------------------------|
---------------------------|--------------------------|
------------3--------------|--------------------------|
------------1--2--5--3--0--|--------------------------|
--2-2-2--2-----2--5--3--0--|--2~---2-2-2--3~---2-2-2--|



------------------------------|-------------------------------|
------------------------------|-------------------------------|
------------------------------|-------------------------------|
---------3--------------------|-------------------------------|
---------1--------------------|-------------------------------|
--2-2-2-------0-0-0-0-3-3-3-3-|--0-0-0-0-0-0-0-0-0--0-0--0-0--|



-------------------------------|-------------------------------|
-------------------------------|-------------------------------|
-------------------------------|-------------------------------|
-------------------------------|-------------------------------|
-------------------------------|-------------------------------|
--0-0-0-0-0-0-0-0-0--0-0--0-0--|--4-4-4-4-4-4-4-4-4--4-4--4-4--|



-------------------------------|-------------------------------|
-------------------------------|-------------------------------|
-------------------------------|-------------------------------|
-------------------------------|-------------------------------|
-------------------------------|-------------------------------|
--1-1-1-1-1-1-1-1-1--1-1--1-1--|--0-0-0-0-0-0-0-0-0--0-0--0-0--|



-------------------------------|-------------------------------|
-------------------------------|-------------------------------|
-------------------------------|-------------------------------|
-------------------------------|-------------------------------|
-------------------------------|-------------------------------|
--0-0-0-0-0-0-0-0-0--0-0--0-0--|--4-4-4-4-4-4-4-4-4--4-4--4-4--|



-----------------------------|-------------------------------|
-----------------------------|-------------------------------|
-----------------------------|-------------------------------|
-----------------------------|-------------------------------|
------------------3-----2~---|-------------------------------|
--8-8-8-8-8-8-8-8----x-------|--0-0-0-0-0-0-0-0-0--0-0--0-0--|



-------------------------------|-------------------------------|
-------------------------------|-------------------------------|
-------------------------------|-------------------------------|
-------------------------------|-------------------------------|
-------------------------------|-------------------------------|
--0-0-0-0-0-0-0-0-0--0-0--0-0--|--4-4-4-4-4-4-4-4-4--4-4--4-4--|



-------------------------------|-------------------------------|
-------------------------------|-------------------------------|
-------------------------------|-------------------------------|
-------------------------------|-------------------------------|
-------------------------------|-------------------------------|
--1-1-1-1-1-1-1-1-1--1-1--1-1--|--0-0-0-0-0-0-0-0-0--0-0--0-0--|



-------------------------------|-------------------------------|
-------------------------------|-------------------------------|
-------------------------------|-------------------------------|
-------------------------------|-------------------------------|
-------------------------------|-------------------------------|
--0-0-0-0-0-0-0-0-0--0-0--0-0--|--4-4-4-4-4-4-4-4-4--4-4--4-4--|



-----------------------------|--------------------|--------------------|
-----------------------------|--------------------|--------------------|
-----------------------------|--------------------|--------------------|
-----------------------------|--------------------|--------------------|
------------------3-----2~---|--------------------|--------------------|
--8-8-8-8-8-8-8-8----x-------|--3--4--0--1--0--1--|--3--4--0--1--0--1--|



--------------------|--------------------|--------------------|
--------------------|--------------------|--------------------|
--------------------|--------------------|--------------------|
--------------------|--------------------|--------------------|
--------------------|--------------------|--------------------|
--3--4--0--1--0--1--|--3--4--0--1--0--1--|--3--4--0--1--0--1--|



--------------------|--------------------|--------------------|
--------------------|--------------------|--------------------|
--------------------|--------------------|--------------------|
--------------------|--------------------|--------------------|
--------------------|--------------------|--------------------|
--3--4--0--1--0--1--|--3--4--0--1--0--1--|--3--4--0--1--0--1--|



--------------------|--------------------|--------------------|
--------------------|--------------------|--------------------|
--------------------|--------------------|--------------------|
--------------------|--------------------|--------------------|
--------------------|--------------------|--------------------|
--3--4--0--1--0--1--|--3--4--0--1--0--1--|--3--4--0--1--0--1--|



--------------------|--------------------|--------------------|
--------------------|--------------------|--------------------|
--------------------|--------------------|--------------------|
--------------------|--------------------|--------------------|
--------------------|--------------------|--------------------|
--3--4--0--1--0--1--|--3--4--0--1--0--1--|--3--4--0--1--0--1--|



--------------------|--------------------|-------------------|
--------------------|--------------------|-------------------|
--------------------|--------------------|-------------------|
--------------------|--------------------|-------------------|
--------------------|--------------------|--------------0----|
--3--4--0--1--0--1--|--3--4--0--1--0--1--|--3--4--0--1--0----|



--------------------|--------------------|--------------------|
--------------------|--------------------|--------------------|
--------------------|--------------------|--------------------|
--------------------|--------------------|--------------------|
--3--4--0--1--0--1--|--3--4--0--1--0--1--|--3--4--0--1--0--1--|
--3--4--0--1--0--1--|--3--4--0--1--0--1--|--3--4--0--1--0--1--|



--------------------|--------------------|--------------------|
--------------------|--------------------|--------------------|
--------------------|--------------------|--------------------|
--------------------|--------------------|--------------------|
--3--4--0--1--0--1--|--3--4--0--1--0--1--|--3--4--0--1--0--1--|
--3--4--0--1--0--1--|--3--4--0--1--0--1--|--3--4--0--1--0--1--|



--------------------|--------------------|--------------------------|
--------------------|--------------------|--------------------------|
--------------------|--------------------|--------------------------|
--------------------|--------------------|--------------------------|
--3--4--0--1--0--1--|--3--4--0--1--0--1--|--3--4--------------------|
--3--4--0--1--0--1--|--3--4--0--1--0--1--|--3--4--0--0--0--0--0--0--|



--------------------------|--------------------------|
--------------------------|--------------------------|
--------------------------|--------------------------|
--------------------------|--------------------------|
-----------------------3--|--4-----------------------|
--0--0--0--0--0--0--0--3--|--4--0--0--0--0--0--0--0--|



--------------------------|--------------------------|
--------------------------|--------------------------|
--------------------------|--------------------------|
--------------------------|--------------------------|
--------------------------|--3--4--------------------|
--0--0--0--0--0--0--0--0--|--3--4--0--0--0--0--0--0--|



--------------------------|--------------------------|
--------------------------|--------------------------|
--------------------------|--------------------------|
--------------------------|--------------------------|
-----------------------3--|--4-----------------------|
--0--0--0--0--0--0--0--3--|--4--0--0--0--0--0--0--0--|



--------------------------|--------------------------|
--------------------------|--------------------------|
--------------------------|--------------------------|
--------------------------|--------------------------|
--------------------------|--3--4--------------------|
--0--0--0--0--0--0--0--0--|--3--4--0--0--0--0--0--0--|



--------------------------|--------------------------|
--------------------------|--------------------------|
--------------------------|--------------------------|
--------------------------|--------------------------|
-----------------------3--|--4-----------------------|
--0--0--0--0--0--0--0--3--|--4--0--0--0--0--0--0--0--|



--------------------------|--------------------||
--------------------------|--------------------||
--------------------------|--------------------||
--------------------------|--------------------||
--------------------------|--3--4--------------||


Important: The song above is NOT stored on the Chordie server. The original song is hosted at www.xguitar.com. Chordie works as a search engine and provides on-the-fly formatting. Chordie does not index songs against artists'/composers' will. To remove this song please click here.

This song is displayed as text-only. Transposing and tuning is only available for chordpro-songs.

Login - add to songbook

Rating click stars to rate

Layout
Accuracy

SHARE PAGE  




You need to log in to post comments